» » »

3 Days Grace, I Hate Everything About You Tabs (ver.2)

Artists:  A B C D E F G H I J K L M N O P Q R S T U V W X Y Z # 

I Hate Everything About You Tabs (ver.2)

3 Days Grace Tabs
Rating:
0/5 (0 votes)
Hard to play? Try these video lessons and learn fast.
                -3 Days Grace
   -"I Hate Everything About You"
   Submited by Rocker165	

    1st	Verse:			
 E |------------------------------------------------------------|
 B |------------------------------------------------------------|
 G |------------------------------------------------------------|
 D |-----4--6b(7)-------4--6b(7)-------4--6b(7)-------4--6b(7)--|
 A |-----4--6b(7)-------4--6b(7)-------4--6b(7)-------4--6b(7)--|
 D |--4------------0h4------------0h4------------0h4------------|
							
							Reapeat x4
 E |------------------------------------------------------------|
 B |------------------------------------------------------------|
 G |-----4--6b(7)-------4--6b(7)-------4--6b(7)--------4--6b(7)-|
 D |-----4--6b(7)-------4--6b(7)-------4--6b(7)--------4--6b(7)-|
 A |------------------------------------------------------------|
 D |-0h7------------0h7------------0h7-------------0h7----------|
		   
		     Chourus:
		    (Distortion)
 E |-0---------0---|--------------------------------------------|
 B |-0---------3---|--------------------------------------------|
 G |-1---------2---|--------------------------------------------|
 D |-2----0----0---|-4--4--0--0--7--7--7-7--7\2-2--2-2-2-2------|
 A |------0----0---|-4--4--0--0--7--7--7-7--7\2-2--2-2-2-2------|
 D |------0----0---|-4--4--0--0--7--7--7-7--7\2-2--2-2-2-2------|

							Repeat x1
 E |------------------------------------------------------------|
 B |------------------------------------------------------------|
 G |------------------------------------------------------------|
 D |-4--4--4-4--4p0--0--0-0--0h2--2--2-2--2/7--6----------------|
 A |-4--4--4-4--4p0--0--0-0--0h2--2--2-2--2/7--6----------------|
 D |-4--4--4-4--4p0--0--0-0--0h2--2--2-2--2/7--6----------------|

    (Guitar 2)
 E |------------0-------|
 B |-2--3--2h3----3--2--|
 G |--------------------|
 D |--------------------|
 A |--------------------|
 D |--------------------|

 E |------------------------------------------------------------|
 B |------------------------------------------------------------|
 G |-1-1-1-2~-2~-2~-3-3-1-1-1-2~-2~-2~-3-3-1-1-1-2~-2~-2~-3-3---|
 D |------------------------------------------------------------|
 A |------------------------------------------------------------|
 D |------------------------------------------------------------|

      Repeat x2  (2nd time only)
 E |-----------|----------------|
 B |-----------|----------------|
 G |-1--2-1----|----------------|
 D |--------2--|----------------|
 A |-----------|-4~~------------|
 D |-----------|----------------|



   That's it. All you do is repeat the whole thing a couple more times 
   and your done. I hope to receive comments on this tab so I can       
   correct anything that I might have screwed up.
            

comments powered by Disqus
↑ Back to top | 3 Days Grace Tabs for I Hate Everything About You. Lyrics for acoustic guitar and electric guitar. Tablatures and chords are parodies/interpretations of the original songs. You may use it for private study, scholarship, research or language learning purposes only