» » »

3 Days Grace, I Hate Everything About You Tabs (ver.1)

Artists:  A B C D E F G H I J K L M N O P Q R S T U V W X Y Z # 

I Hate Everything About You Tabs (ver.1)

3 Days Grace Tabs
 Rating:
4/5 (4 votes)
I Hate Everything About You lessons Tabs too difficult? Try these video lessons and learn fast
1
                
Hey! 8D Well, spent an a**-load of time on this tab and I'm pretty sure it's right. If 
Have fun!


[Beginning & Verse]

e|--------------------------------------------------------------------|
B|--------------------------------------------------------------------|
G|-----4-6-----4-6-----4-6-----4-6-----4-6-----4-6-----4-6-----4-6----|
D|--------------------------------------------------------------------|
A|--------------------------------------------------------------------|
D|-0-4-----0-4-----0-4-----0-4-----4-0-----4-0-----4-0-----4-0--------|

[Pre-Chorus]

e|--------------------------------------------------------------------|
B|--------------------------------------------------------------------|
G|--------------------------------------------------------------------|
D|---2~--0~--7~-------------------------------------------------------|
A|---2~--0~--7~-------------------------------------------------------|
D|---2~--0~--7~-------------------------------------------------------|

[Chorus]

e|--------------------------------------------------------------------|
B|--------------------------------------------------------------------|
G|--------------------------------------------------------------------|
D|--4-4-x-0-0-x-7-7-7-7-7-2-2-2-2-2-4-4-4-4-4-0-0-0-0-0-2-2-2-2-2-7-6-|
A|--4-4-x-0-0-x-7-7-7-7-7-2-2-2-2-2-4-4-4-4-4-0-0-0-0-0-2-2-2-2-2-7-6-|
D|--4-4-x-0-0-x-7-7-7-7-7-2-2-2-2-2-4-4-4-4-4-0-0-0-0-0-2-2-2-2-2-7-6-|

[Channel]

e|-------------------------------------------------------------------|
B|-------------------------------------------------------------------|
G|-------------------------------------------------------------------|
D|-6-7-9-6-7-9-6-7-9-6-7h6p7---6-7-9-6-7-9-6-7-9-6-7h6p7-------------|
A|---------------------------7---------------------------4-----------|
D|-------------------------------------------------------------------|

Song Structure:

Beginning
Verse (x4)
Pre-Chorus
Chorus (x2)
Verse (x4)
Pre-Chorus
Chorus (x2)
Channel
Verse (FIRST HALF ONLY)
Chorus (x4)

----------------------------------------------------------------------------

x - stop sound (mute)
h - hit
p - pull-off
~ - ring (let it play until next note)
            
Submit corrections

comments powered by Disqus
↑ Back to top | 3 Days Grace Tabs for I Hate Everything About You. Lyrics for acoustic guitar and electric guitar. 1 Tablatures and chords are parodies/interpretations of the original songs. You may use it for private study, scholarship, research or language learning purposes only