>
 >
This Is My Time

This Is My Time Guitar Tabs

3 Colours Red - This Is My Time chords, tabs, tablatures, lyrics

Guitar lessons | Add/correct | Request | Top 50 tabs Artists:  A B C D E F G H I J K L M N O P Q R S T U V W X Y Z 0-9

This Is My Time Guitar Tabs – 3 Colours Red

CD, Sheet music, Poster

Do you like This Is My Time? Share with your friends now
Tabs
3 Colours Red: This is my Time

Tuning: Guitar 1+2
Low to high
Eb  Ab  Db  Gb  Bb  Eb

First Verse:
Gt 1
		It wasn?t meant to be,			so
        Amaj7			A7
E-------4------------4------------4--------5----------------5---------------5-------------------|
B-------5------------5------------5--------5----------------5---------------5-------------------|
G-------6------------6------------6--------6----------------6---------------6-------------------|
D-------7------------7------------7--------5----------------5---------------5-------------------|
A--------------0------------0-------------- 7----------------7---------------7------------------|
E--------------------------------------------5-------5-------5--------5------5------------------|

          Long		            in room silence
         D				Dm
E-------------------------------------------5-----------------5----------------5------------------|
B-----7-------------7-------------7-------6-----------------6----------------6--------------------|
G-----7-------------7-------------7-------7-----------------7----------------7--------------------|
D-----7-------------7-------------7-------7-----------------7----------------7--------------------|
A-----5------5------5------5-----5-------5--------5-------5--------5-------5----------------------|
E-------------------------------------------------------------------------------------------------|

		     But it took so long			to
Amaj7			                A7
E-------4------------4------------4--------5----------------5---------------5-------------------|
B-------5------------5------------5--------5----------------5---------------5-------------------|
G-------6------------6------------6--------6----------------6---------------6-------------------|
D-------7------------7------------7--------5----------------5---------------5-------------------|
A--------------0------------0-------------- 7----------------7---------------7------------------|
E--------------------------------------------5-------5-------5--------5------5------------------|

Belong				I?m bored out of my tiny mind.
         D				E (let ring)
E-------------------------------------------------|
B-----7-------------7-------------7------9--------|
G-----7-------------7-------------7------9--------|
D-----7-------------7-------------7------9--------|
A-----5------5------5------5-----5------7---------|
E-------------------------------------------------|

If this is all it is, then you?re gone to heaven.
Cos? you took the high off things I never knew of.


Chorus (Ac Gt w/Distorted Gt)
G      D       A
This is my time,
G      D        A
This is my time.

Verse: Ac Gt/w clean guitar

Guitar 2: Clean

Amaj7			A7		D		Dm
E-------4-----------------------5-------------------5----------------------5----------|
B-------5-----------------------5-------------------7----------------------6----------|
G-------6-----------------------6-------------------7----------------------7----------|
D-------7-----------------------5-------------------7----------------------7----------|
A-------0---------------------- 7-------------------5----------------------5----------|
E--------------------------------5----------------------------------------------------|


Amaj7			A7		D		E
E-------4-----------------------5-------------------5---------------------7-----------|
B-------5-----------------------5-------------------7---------------------9-----------|
G-------6-----------------------6-------------------7---------------------9-----------|
D-------7-----------------------5-------------------7-------------------- 9-----------|
A-------0---------------------- 7-------------------5---------------------7-----------|
E--------------------------------5----------------------------------------------------|

				         (w/distorted Gt)
Amaj7			A7		D
E-------4-----------------------5-------------------5----5---5---5---5---5---5---5-----------|
B-------5-----------------------5-------------------7----7-- 7---7---7---7---7---7-----------|
G-------6-----------------------6-------------------7----7---7-- 7---7---7---7---7-----------|
D-------7-----------------------5-------------------7----7---7---7---7---7---7---7-----------|
A-------0---------------------- 7-------------------5----5---5---5---5---5---5---5-----------|
E--------------------------------5-----------------------------------------------------------|


Amaj7			A7		         D
E---4--4--4--4--4--4--4--4---5--5--5--5--5--5--5--5--5--5--5--5--5--5--5--5----------|
B---5--5--5--5--5--5--5--5---5--5--5--5--5--5--5--5--7--7--7--7--7--7--7--7----------|
G---6--6--6--6--6--6--6--6---6--6--6--6--6--6--6--6--7--7--7--7--7--7--7--7----------|
D---7--7--7--7--7--7--7--7---5--5--5--5--5--5--5--5--7--7--7--7--7--7--7--7----------|
A---0--0--0--0--0--0--0--0---7--7--7--7- 7--7--7--7--5--5--5--5--5--5--5--5----------|
E-------------------------------- 5- 5--5--5--5--5--5--5-----------------------------|


        E
E-----7--7--7--7--7--7--7--7---------------------|
B-----9--9--9--9--9--9--9--9---------------------|
G-----9--9--9--9--9--9--9--9---------------------|
D-----9--9--9--9--9--9--9--9---------------------|
A-----7--7--7--7--7--7--7--7---------------------|
E------------------------------------------------|


Chorus (Ac Gt w/Distorted Gt)
G      D       A
This is my time,
G      D        Esus4    E    Esus 4   E
This is my time.


	You want it high

	You wanna fly,
	E
	You feel it in the underground
	Esus4
The difference is the difference
		E
And nobody?s gonna hear you boy!
	  D             A               E
So scream on, dream on

Lead guitar:

----------------------------------------------------------|
----------------------------------------------------------|
----------------------------------------------------------|
----------------------------------------------------------|
------------------------0-----2---------------------------|
--0---2---4-------4----------------0----------------------|


	Amaj7		A7	D
Verse:    Wasn?t meant to be so long
	Dm
	In room silence


Chorus (Ac Gt w/Distorted Gt)
G      D       A
This is my time,
G      D        A     E
This is my time.

Chords towards the end |: G |  D  |  A  |  E :|

Acoustic ending:

|  G  |  D  |  A  |





Comments


Popular 3 Colours Red tabs & chords
Beautiful Day Bass Tabs
Nuclear Holiday Chords
Nerve Gas Drum Tabs
Beautiful Day Tabs
Fit Boy + Faint Girl Tabs
Nuclear Holiday Tabs
Pirouette Tabs
Nuclear Holiday Ukulele


Song lyrics



↑ Back to top | Tablatures and chords are parodies/interpretations of the original songs. You may use it for private study, scholarship, research or language learning purposes only
© 2014 AZChords.com Contact us | Privacy policy | DMCA | Add/correct tabs | Request tabs | Top 50 tabs