>
 >
Beautiful Day

Beautiful Day Bass Tabs

3 Colours Red - Beautiful Day chords, tabs, tablatures, lyrics

Guitar lessons | Add/correct | Request | Top 50 tabs Artists:  A B C D E F G H I J K L M N O P Q R S T U V W X Y Z 0-9

Beautiful Day Bass Tabs – 3 Colours Red

CD, Sheet music, Poster

Do you like Beautiful Day? Share with your friends now
Bass TabsTabs

INTRO:

D--------4------4--------4------4-------4-----4------4-----4-----------------------------------|
G-----------2----------------2--------------2-------------2------------------------------------|
B----0---------------0--------------0--------------0-------------0-----------------------------|
e----------------------------------------------------------------------------------------------|

D-----2-----2------2-----2-----2-----2----2-----2-----------------------------------------|
G--------2-------------2-----------2-----------2------------------------------------------|
B--0-----------0-------------0----------0-------------0-----------------------------------|
e-----------------------------------------------------------------------------------------|

D-----0-----0----0-----0-----0-----0---------------0---------------------------------------------|
G--------2-----------2-----------2----------------2----------------------------------------------|
B--0-----------0-----------0------------0-----2--------------------------------------------------|
e---------------------------------------------0--------------------------------------------------|

REPEAT THROUGH VERSE

CHORUS:
I'M NOT TOO SURE ABOUT THIS BUT THESE SOUND OK

A5(X02200)
           U'R IN A NEVER ENDING
E(0332000)
           BITTER AND CONDECENDING
G(320022)
      MOOOOOOD
BM(224432)
      I JUST WANNA BE BY U


TRANSCIBED BY PAUL MCCARTHY





Comments


Popular 3 Colours Red tabs & chords
Nuclear Holiday Chords
Nerve Gas Drum Tabs
Beautiful Day Tabs
Fit Boy + Faint Girl Tabs
Nuclear Holiday Tabs
Pirouette Tabs
This Is My Time Tabs
Nuclear Holiday Ukulele


Song lyrics



↑ Back to top | Tablatures and chords are parodies/interpretations of the original songs. You may use it for private study, scholarship, research or language learning purposes only
© 2014 AZChords.com Contact us | Privacy policy | DMCA | Add/correct tabs | Request tabs | Top 50 tabs