» » »

You Are My God Tabs (ver.1)

Artists:  A B C D E F G H I J K L M N O P Q R S T U V W X Y Z # 

You Are My God Tabs (ver.1)

38th Parallel
Rating:
0/5 (0 votes)

Hard to play? Try these video lessons and learn fast.
                Guitar Tuning: C G C F A D


      h - hammer on 
      p - pull off 
      b - bend string up
      r - release bend
      / - slide up
      \ - slide down
      v - vibrato (sometimes written as ~)
      x - play 'note' with heavy damping


Intro/Chorus
D------------------------------------------------------------------|
A------------------7------------7---5------------------------------|
F------------------6------------6---6------------------------------|
C-------4--4--4--------4--4--4-------------------------------------|
G-------4--4--4--------4--4--4-------------------------------------|
C-------4--4--4--------4--4--4-------------------------------------|
pm (.)  .  .  .        .  .  .


D------------------------------------------------------------------|
A----------------------5-----------10-----------9--5---------------|
F----------------------2------------9-----------7--2---------------|
C-------0--0----0--0------7--7--7------7--7--7---------------------|
G-------0--0----0--0------7--7--7------7--7--7---------------------|
C-------0--0----0--0------7--7--7------7--7--7---------------------|
                          .  .  .      .  .  .



D------------------------------------------------------------------|
A------------------------------------------------------------------|
F------------------------------------------------------------------|
C-------2---4---0---4--4--4----------------------------------------|
G-------2-------0--------------------------------------------------|
C-------2-------0--------------------------------------------------|


Verse (he plays it different all the time but these are the main ways
he plays them)
D------------------------------------------------------------------|
A------------------------------------------------------------------|
F------------------------------------------------------------------|
C---------6-6------6-6---6---6h7-----4-4-----4-4---6---6h7---------|
G------------------------------------------------------------------|
C----4-4-------4-4-----4---4-----0-0-----0-0-----0---0-------------|


D------------------------------------------------------------------|
A------------------------------------------------------------------|
F------------------------------------------------------------------|
C---------6-6------6-6---6---6h7-----4-4-----4-4---6---6h7---------|
G------------------------------------------------------------------|
C----4-4-------4-4-----4---4-----0-0-----0-0-----0---0-------------|


D------------------------------------------------------------------|
A------------------------------------------------------------------|
F----------------------6h7p6-----------------------7p6-------------|
C---------6-6------6---------7---------4-4-----4-------7-----------|
G------------------------------------------------------------------|
C----4-4-------4-4---4-------------0-0-----0-0---0-----------------|


D------------------------------------------------------------------|
A------------------------------------------------------------------|
F----------------------4h6p4---------------------7p6---------------|
C---------6-6------6---------7-------4-4-----4-------7-------------|
G------------------------------------------------------------------|
C----4-4-------4-4---4-----------0-0-----0-0---0-------------------|

Bridge (repeat 4 times)
D------------------------------------------------------------------|
A------------------------------------------------------------------|
F------------------------------------------------------------------|
C-----2h4--4--4--2h4--4--4---2h4--4---0----------------------------|
G-----2h4--4--4--2h4--4--4---2h4--4---0----------------------------|
C-----2h4--4--4--2h4--4--4---2h4--4---0----------------------------|

Repeat verse 2X
            
Hard to play? Try these video lessons and learn fast. | Correct




comments powered by Disqus
↑ Back to top | Tablatures and chords are parodies/interpretations of the original songs. You may use it for private study, scholarship, research or language learning purposes only