» » »

38th Parallel, Turn The Tides Tabs (ver.1)

Artists:  A B C D E F G H I J K L M N O P Q R S T U V W X Y Z # 

Turn The Tides Tabs (ver.1)

38th Parallel Tabs
 Rating:
4/5 (4 votes)
Turn The Tides lessons Tabs too difficult? Try these video lessons and learn fast
                
Drop D Tune Down 1 Step  C G C F A D
   Verse
 Clean
||------------------------------------|-----------------------------------|
||o-----------------------------------|-----------------------------------|
||------------------------------------|-----------------------------------|
||----------------------------0-------|---------------------------0-------| 4x
||o---5---5-5p3---5-(5)-5---5---5---5-|---5---5-5p3---5-(5)-5---5---5---5-|
||--0---0-------0---------0-------0---|-0---0-------0---------0-------0---|




 Chorus
|------------------|------------------|------------------|-----------------|
|------------------|------------------|------------------|-----------------|
|------------------|------------------|------------------|-----------------|
|-0--------0-0-0-3-|-0--------0-0-0-3-|-0--------0-0-0-3-|-0--------0-0-3--|
|-0------0-0-0-0-3-|-0------0-0-0-0-3-|-0------0-0-0-0-3-|-0------0-0-0-3--|
|-0--<3>-0-0-0-0-3-|-0--<3>-0-0-0-0-3-|-0--<3>-0-0-0-0-3-|-0--<3>-0-0-0-3--|



 Breakdown
|---------------------------------|---------------------------------|
|---------------------------------|---------------------------------|
|---------------------------------|---------------------------------|
|---------------------------------|---------------------------------|
|---5-----3-----5---8---5-----3h5-|---5-----3-----5---3---5-----3h5-|
|-0---0-0---0-0---0---0---0-0-----|-0---0-0---0-0---0---0---0-0-----|


|---------------------------------|---------------------------------|
|---------------------------------|---------------------------------|
|---------------------------------|---------------------------------|
|---------------------------------|---------------------------------|
|---5-----3-----5---1---3-----3h5-|---5-----3-----5-----------------|
|-0---0-0---0-0---0---0---0-0-----|-0---0-0---0-0---0-8-0-7-0-0-5h7-|





 Interlude
|----------|------------|------------|--------|
|----------|------------|------------|--------|
|----------|------------|------------|--------|
|-0--------|-(0)--------|-(0)--------|-(0)----|
|-0--------|-(0)--------|-(0)--------|-(0)----|
|-0--------|-(0)--------|-(0)--------|-(0)----|


 Bridge
|------------------------|------------|------------------------|--------|
|------------------------|------------|------------------------|--------|
|------------------------|------------|------------------------|--------|
|------------------------|------------|------------------------|--------|
|---5-----5p3---5-(5)----|-(5)--------|---5-----5p3---5-(5)----|-(5)----|
|-0---0-0-----0----------|------------|-0---0-0-----0-0-(0)----|-(0)----|


|------------------------|------------|------------------------|--------|
|------------------------|------------|------------------------|--------|
|------------------------|------------|------------------------|--------|
|------------------------|------------|------------------------|--------|
|---5-----5p3---5-(5)----|-(5)--------|---5-----5p3---5-(5)----|-(5)----|
|-0---0-0-----0----------|------------|-0---0-0-----0-0-(0)----|-(0)----|
            
Submit corrections

comments powered by Disqus
↑ Back to top | 38th Parallel Tabs for Turn The Tides. Lyrics for acoustic guitar and electric guitar. Tablatures and chords are parodies/interpretations of the original songs. You may use it for private study, scholarship, research or language learning purposes only