>
 >
Twentieth Century Fox

Twentieth Century Fox Bass Tabs

38 Special - Twentieth Century Fox chords, tabs, tablatures, lyrics

Guitar lessons | Add/correct | Request | Top 50 tabs Artists:  A B C D E F G H I J K L M N O P Q R S T U V W X Y Z 0-9

Twentieth Century Fox Bass Tabs – 38 Special

CD, Sheet music, Poster

Do you like Twentieth Century Fox? Share with your friends now
Bass TabsTabs
-----------------------------------------------------------------------------
		                  
            
-----------------------------------------------------------------------------


Tuning: standard tuning

=============================================================================

Bass



             E  E  E  E  E  E  E  E     E  E  E  E  E  E  E  E   
G||-------|--------------------------|--------------------------|
D||-------|--------------------------|--------------------------|
A||-------|--3--3--3--3--3--3--3--3--|--3--3--3--3--3--3--3--3--|
E||-------|--------------------------|--------------------------|


  E  E  E  E  E  E  E  E     E  E  E  E  E  E  E  E   
--------------------------|--------------------------|
--------------------------|--------------------------|
--3--3--3--3--3--3--3--3--|--3--3--3--3--3--3--3--3--|
--------------------------|--------------------------|


  E  E  E  E  E  E  E  E     E  E  E  E  E  E  E  E   
--------------------------|--------------------------|
--------------------------|--------------------------|
--3--3--3--3--3--3--3--3--|--3--3--3--3--3--3--3--3--|
--------------------------|--------------------------|


                                   |--3--|              
  E  E  E  E  E  E  E  E     E  E  E  E  E  E  E  Q     
--------------------------|----------------------------|
--------------------------|-----5--5--5--5--5--5--5----|
--3--3--3--3--3--3--3--3--|--3-------------------------|
--------------------------|----------------------------|


  E  E  E  E  E  E  E  E     E  E  E  E  E  E  E  E   
--------------------------|--------------------------|
--------------------------|--------------------------|
--3--3--3--3--3--3--3--3--|--3--3--3--3--3--3--3--3--|
--------------------------|--------------------------|


  E  E  E  E  E  E  E  E     E  E  E  E  E  E  E  E   
--------------------------|--------------------------|
--------------------------|--------------------------|
--3--3--3--3--3--3--3--3--|--3--3--3--3--3--3--3--3--|
--------------------------|--------------------------|


  E  E  E  E  E  E  E  E     E  E  E  E  E  E  E  E   
--------------------------|--------------------------|
--------------------------|--------------------------|
--3--3--3--3--3--3--3--3--|--3--3--3--3--3--3--3--3--|
--------------------------|--------------------------|


  E  E  E  E  E  E  E  E     E  E  E  E  E  E  E  E   
--------------------------|--------------------------|
--------------------------|-----------1--------------|
--3--3--3--3--3--3--3--3--|--1--1--3-----3--1-----3--|
--------------------------|--------------------3-----|


  E  E  E  E  E  E  E  E     E  E  E  E  E  E  E  E   
--------------------------|--------------------------|
--------------------------|--------------------------|
--L--3--3--3--3--3--3--3--|--L--3--3--3--3--3--3--1--|
--------------------------|--------------------------|


  E  E  E  E  E  E  E  E     E  E  E  E  E  E  E  E   
--------------------------|--------------------------|
--------------------------|--------------------------|
--L--1--1--1--1--1--1--1--|--1--1--0--0--1--1--2--3--|
--------------------------|--------------------------|


  E  E  E  E  E  E  E  E     E  E  E  E  E  E  E  E   
--------------------------|--------------------------|
--------------------------|--------------------------|
--L--3--3--3--3--3--3--3--|--3--3--3--3--3--3--3--1--|
--------------------------|--------------------------|


  E  E  E  E  E  E  E  E     E  E  Q    E  E  E  E     E  E  E  E  E  E  E  E   
--------------------------|-------------------------|--------------------------|
--------------------------|-------------------------|--------------------------|
--L--1--1--1--1--1--3-----|-------------------------|--------------------------|
-----------------------1--|--L--1--0----1--1--3--4--|--L--4--4--4--4--4--4--4--|


  E  E  E  E  E  E  Q       Q    Q    Q    Q       Q      Q     E  E   Q      
-------------------------|----------------------|----------------------------|
-------------------------|----------------------|----------------------------|
-------------------------|----------------------|--------------10--8---------|
--6--6--6--6--6--6--6----|--1----0----1----2----|--3----/10-----------10\----|


  E  E  E  E  E  E  E  E     E  E  E  E  E  E  E  E   
--------------------------|--------------------------|
--------------------------|--------------------------|
--3--3--3--3--3--3--3--3--|--3--3--3--3--3--3--3--3--|
--------------------------|--------------------------|


  E  E  E  E  E  E  E  E     E  E  E  E  E  E  E  E   
--------------------------|--------------------------|
--------------------------|--------------------------|
--3--3--3--3--3--3--3--3--|--3--3--3--3--3--3--3--3--|
--------------------------|--------------------------|


  E  E  E  E  E  E  E  E     E  E  E  E  E  E  E  E   
--------------------------|--------------------------|
--------------------------|--------------------------|
--3--3--3--3--3--3--3--3--|--3--3--3--3--3--3--3--3--|
--------------------------|--------------------------|


  E  E  E  E  E  E  E  E     E  E  E  E  E  E  E  E   
--------------------------|--------------------------|
--------------------------|-----1--3--5--3--1--------|
--3--3--3--3--3--3--3--3--|--3-----------------1--3--|
--------------------------|--------------------------|


  E  E  E  E  E  E  E  E     E  E  E  E  E  E  E  E   
--------------------------|--------------------------|
--------------------------|--------------------------|
--L--3--3--3--3--3--3--3--|--3--3--3--3--3--3--3--1--|
--------------------------|--------------------------|


  E  E  E  E  E  E  E  E     E  E  E  E  E  E  E  E   
--------------------------|--------------------------|
--------------------------|--------------------------|
--L--1--1--1--1--1--1--1--|--1--1--0--0--------1--1--|
--------------------------|--------------3--3--------|


  E  E  E  E  E  E  E  E     E  E  E  E  E  E  E  E   
--------------------------|--------------------------|
--------------------------|--------------------------|
--3--3--3--3--3--3--3--3--|--3--3--3--3--3--3--3--1--|
--------------------------|--------------------------|


  E  E  E  E  E  E  E  E     E  E  E  E  E  E  E  E   
--------------------------|--------------------------|
--------------------------|--------------------------|
--L--1--1--1--1--1--3-----|--------------------------|
-----------------------1--|--L--1--1--1--1--1--3--4--|


  E  E  E  E  E  E  E  E     E  E  E  E  E  E  Q       Q    Q    Q    Q     
--------------------------|-------------------------|----------------------|
--------------------------|--------------8--6-------|----------------------|
--------------------------|-----------8--------8----|----------------------|
--4--4--4--4--4--4--4--4--|--6--6--6----------------|--1----0----1----2----|


  Q    Q    E  E  Q        E  E  E  E  E  E  E  E     E  E  E  E  E  E  E  E   
------------------------|--------------------------|--------------------------|
------------5--3--------|--------------------------|--------------------------|
-------5----------5\----|--3--3--3--3--3--3--3--3--|--3--3--3--3--3--3--3--3--|
--3---------------------|--------------------------|--------------------------|


  E  E  E  E  E  E  E  E     E  E  E  E  E  E  E  E   
--------------------------|--------------------------|
--------------------------|--------------------------|
--3--3--3--3--3--3--3--3--|--3--3--3--3--3--3--3--3--|
--------------------------|--------------------------|


  E  E  E  E  E  E  E  E     E  E  E  E  E  E  E  E   
--------------------------|--------------------------|
--------------------------|--------------------------|
--3--3--3--3--3--3--3--3--|--3--3--3--3--3--3--3--3--|
--------------------------|--------------------------|


  E  E  E  E  E  E  E  E     E  E  E  E  E  E  E  E     Q    H        Q     
--------------------------|--------------------------|---------------------|
--------------------------|--------------1--3--5-----|---------------------|
--3--3--3--3--3--3--3--3--|--3--3--3--3-----------3--|--3------------------|
--------------------------|--------------------------|---------------------|


                 |--3--|                         
  H        E  E  E  E  E     Q    H        Q     
--------------------------|---------------------|
--------------------------|---------------------|
--------------3--3--3--3--|--L------------------|
--------------------------|---------------------|


  |--3--|  |--3--|  |--3--|                                   
  E  E  E  E  E  E  E  E  E  E  E     E  E  E  E  E  E  Q     
-----------------------------------|-------------------------|
-----------------------------------|-------------------------|
-----------------------------------|-------------------------|
--6--6--6--6--6--6--6--6--6--6--4--|--L--4--4--4--4--4--4----|


  E  E  E  E  E  E  Q       E  E  E  E  E  E  E  E   
-------------------------|--------------------------|
-------------------------|--------------------------|
-------------------------|--------------------------|
--6--6--6--6--6--6--6----|--4--4--4--4--4--4--4--4--|


  E  E  E  E  E  E   Q        E  E  E  E  E  E  E  E   
---------------------------|--------------------------|
---------------------------|--------------------------|
-----------------8--10\----|--------------------------|
--4--4--4--4--6------------|--4--4--3--3--4--4--5--5--|


  E  E  E  E  E  E  Q       H          H             H        H         
-------------------------|----------------------|----------------------|
-------------------------|----------------------|----------------------|
-------------------------|-----------/10--------|--/10-----------------|
--6--6--6--6--6--6--6----|--3-------------------|-------------3--------|


  E  E  E  E  E  E  E  E     E  E  E  E  E  E  E  E   
--------------------------|--------------------------|
--------------------------|--------------------------|
--3--3--3--3--3--3--3--3--|--3--3--3--3--3--3--3--3--|
--------------------------|--------------------------|


  E  E  E  E  E  E  E  E     E  E  E  E  E  E  E  E   
--------------------------|--------------------------|
--------------------------|--------------------1--3--|
--3--3--3--3--3--3--3--3--|--3--3--3--3--3--3--------|
--------------------------|--------------------------|


  E  E  E  E  E  E  E  E     E  E  E  E  E  E  E  E   
--------------------------|--------------------------|
--L--3--3--3--3--3--3--3--|--3--3--3--3--3--1--------|
--------------------------|--------------------3--3--|
--------------------------|--------------------------|


  E  E  E  E  E  E  E  E     E  E  E  E  E  E  E  E   
--------------------------|--------------------------|
--------------------------|--------------------------|
--L--3--3--3--3--3--3--3--|--3--1--1--1--L--1--1--3--|
--------------------------|--------------------------|


  E  E  E  E  E  E  E  E     E  E  E  E  E  E  E  E   
--------------------------|--------------------------|
--------------------------|--------------------------|
--L--3--3--3--3--3--3--3--|--3--3--3--3--3--3--3--3--|
--------------------------|--------------------------|


  E  E  E  E  E  E  E  E     E  E  E  E  E  E  E  E   
--------------------------|--------------------------|
--------------------------|--------------------1--3--|
--3--3--3--3--3--3--3--3--|--3--3--3--3--3--3--------|
--------------------------|--------------------------|


  E  E  E  E  E  E  E  E     E  E  E  E  E  E  Q     
--------------------------|-------------------------|
--L--3--3--3--3--3--3--1--|--L--1--1--1--1--1--1----|
--------------------------|-------------------------|
--------------------------|-------------------------|


  |----3----|    |----3----|                                               
  Q    Q    Q    Q    Q    Q       H         H           W                 
--------------------------------|---------------------|-------------------|
--5----3------------------------|---------------------|-------------------|
------------5----3----1----3----|---------------------|--3----------------|
--------------------------------|--3\-----------------|-------------------|


  W                   W                   E  E  E  E  E  E  E  E   
-------------------|-------------------|--------------------------|
-------------------|-------------------|--------------------------|
--L----------------|--L----------------|-----3--3--3--3-----1--3--|
-------------------|-------------------|-----------------3--------|


  E  E  E  E  E  E  E  E     E  E  E  E  E  E  E  E   
--------------------------|--------------------------|
--------------------------|--------------------------|
--L--3--3--3--3--3--3--3--|--3--3--3--3--3--3--3--3--|
--------------------------|--------------------------|


  E  E  E  E  E  E  E  E     Q    E  Q.     E  E     E  E  E  E  E  E  E  E   
--------------------------|-----------------------|--------------------------|
-----------------------1--|--L-------3------------|--------------------------|
--3--3--3--3--3--3--3-----|-------3---------1--3--|--L--3--3--3--3--3--3--3--|
--------------------------|-----------------------|--------------------------|


  E  E  E  E  E  E  E  E     E  E  E  E  E  E  E  E   
--------------------------|--------------------------|
--------------------------|--------------------------|
--3--3--3--3--3--3--3--1--|--L--1--1--1--1--1--1--1--|
--------------------------|--------------------------|


  E  E  E  E  E  E  E  E     E  E  E  E  E  E  E  E   
--------------------------|--------------------------|
--------------------------|--------------------------|
--1--1--0--0--------1--1--|--3--3--3--3--3--3--3--3--|
--------------3--3--------|--------------------------|


  E  E  E  E  E  E  E  E     E  E  E  E  E  E  E  E   
--------------------------|--------------------------|
--------------------------|--------------------------|
--3--3--3--3--3--3--3--1--|--L--1--1--1--1--1--3-----|
--------------------------|-----------------------1--|


  E  E  E  E  E  E  E  E     E  E  E  E  E  E  E  E     E  E  E  E  E  E  Q     
--------------------------|--------------------------|-------------------------|
--------------------------|--------------------------|--------------8--6-------|
--------------------------|--------------------------|-----------8--------8----|
--L--1--1--1--1--1--3--4--|--4--4--4--4--4--4--4--4--|--6--6--6----------------|


                         |--3--|       |--3--|        
  Q    Q    Q    Q       E  E  E  Q    E  E  E  Q     
----------------------|------------------------------|
----------------------|-----------5----5--5--5-------|
----------------------|------------------------------|
--1----0----1----2----|--3--3--3----------------3----|


  E  E  E  E  E  E  E  E     E  E  E  E  E  E  E  E   
--------------------------|--------------------------|
--------------------------|--------------------------|
--3--3--3--3--3--3--3--3--|--3--3--3--3--3--3--3--3--|
--------------------------|--------------------------|


  E  E  E  E  E  E  E  E     E  E  E  E  E  E  Q       E  E  E  E  E  E  E  E   
--------------------------|--------------------3----|--------------------------|
--------------------------|-----------------5-------|--------------------------|
--3--3--3--3--3--3--3--3--|--3--3--3--3--3----------|--3--3--3--3--3--3--3--3--|
--------------------------|-------------------------|--------------------------|


  E  E  E  E  E  E  E  E     E  E  E  E  E  E  E  E   
--------------------------|--------------------------|
--------------------------|--------------------------|
--3--3--3--3--3--3--3--3--|--3--3--3--3--3--3--3--3--|
--------------------------|--------------------------|


  E  E  E  E  E  E  E  E     E  E  E  E  E  E  E  E   
--------------------------|--------------------------|
-----------------3--5-----|--------------------------|
--3--3--3--3--3--------3--|--3--3--3--3--3--3--3--3--|
--------------------------|--------------------------|


  E  E  E  E  E  E  E  E     E  E  E  E  E  E  E  E     E  E  E  E  E  E  Q     
--------------------------|--------------------------|--------------------3----|
--------------------------|--------------------------|-----------------5-------|
--3--3--3--3--3--3--3--3--|--3--3--3--3--3--3--3--3--|--3--3--3--3--3----------|
--------------------------|--------------------------|-------------------------|


  E  E  E  E  E  E  E  E     E  E  E  E  E  E  E  E   
--------------------------|--------------------------|
--------------------------|--------------------------|
--3--3--3--3--3--3--3--3--|--3--3--3--3--3--3--3--3--|
--------------------------|--------------------------|


                             |----3----|    |----3----|     
  E  E  E  E  E  E  E  E     Q    Q    Q    Q    Q    Q     
--------------------------|--------------------------------|
--------------------------|--------------------------------|
--3--3--3--3--3--3--3--3--|-----------------1----1----1----|
--------------------------|--4----4----4-------------------|


  E  E  E  E  E  E  E  E     E  E  E  E  E  E  E  E   
--------------------------|--------------------------|
--------------------------|--------------------------|
--3--3--3--3--3--3--3--3--|--3--3--3--3--3--3--3--3--|
--------------------------|--------------------------|


  E  E  E  E  E  E  E  E     E  E  E  Q    E  E  E     E  E  E  E  E  E  E  E   
--------------------------|-------------------------|--------------------------|
-----1--3--5--3--1--------|-------------------------|--------------------------|
--3-----------------3-----|-----------1----1--1--3--|--L--3--3--3--3--3--3--3--|
-----------------------4--|--L--4--4----------------|--------------------------|


  E  E  E  E  E  E  E  E     E  E  E  E  E  E  E  E     E  E  E  Q    E  E  E   
--------------------------|--------------------------|-------------------------|
--------------------------|-----------------1--------|-------------------------|
--L--3--3--3--3--3--3--3--|--3--3--3--3--3-----3-----|-----------1----1--1--3--|
--------------------------|-----------------------4--|--L--4--4----------------|


  E  E  E  E  E  E  E  E     E  E  E  E  E  E  E  E   
--------------------------|--------------------------|
--------------------------|--------------------------|
--L--3--3--3--3--3--3--3--|--3--3--3--3--3--3--3--3--|
--------------------------|--------------------------|


        |--3--|                                        
  E  E  E  E  E  E  Q    E     E  E  E  Q    E  E  E   
-----5--3-------------------|-------------------------|
-----------5--3--1----------|-------------------------|
--3-----------------3-------|-----------1----1--1--3--|
-------------------------4--|--L--4--4----------------|


  E  E  E  E  E  E  E  E     E  E  E  E  E  E  E  E     E  E  E  E  E  Q    E   
--------------------------|--------------------------|-------------------------|
--------------------------|--------------------------|--------------1----------|
--L--3--3--3--3--3--3--3--|--3--3--3--3--3--3--3--3--|--3--3--3--3-----3-------|
--------------------------|--------------------------|----------------------4--|


  E  E  E  Q    E  E  E     E  E  E  E  E  E  E  E     E  E  E  E  E  E  E  E   
-------------------------|--------------------------|--------------------------|
-------------------------|--------------------------|--------------------------|
-----------1----1--1--3--|--L--3--3--3--3--3--3--3--|--3--3--3--3--3--3--3--3--|
--L--4--4----------------|--------------------------|--------------------------|


        |--3--|                                         
  E  E  E  E  E  E  Q    E     E  E  E  Q    E  E  E    
-----5--3-------------------|-------------------------||
-----------5--3--1----------|-------------------------||
--3-----------------3-------|-----------1----1--1--3--||
-------------------------4--|--L--4--4----------------||




Duration Legend
---------------
W - whole
H - half
Q - quarter
E - 8th
S - 16th
T - 32nd
X - 64th
. - note dotted
|-n-|  - n-tuplets


Tablature Legend
----------------
L - tied note
x - dead note
g - grace note
(n) - ghost note
> - accentuded note
NH - natural harmonic
AH - artificial harmonic
TH - tapped harmonic
SH - semi harmonic
PH - pitch harmonic
h - hammer on
p - pull off
b - bend
br - bendRelease
pb - preBend
pbr - preBendRelease
brb - bendReleaseBend
\n/ - tremolo bar dip
\n - tremolo bar dive
-/n - tremolo bar Release up
/n\ - tremolo bar inverted dip
/n - tremolo bar return
-\n - tremolo bar Release down
S - shift slide
s - legato slide
/ -  slide into from below or out of upwards
\ -  slide into from above or out of downwards
~ - vibrato
W - wide vibrato
tr - trill
TP - tremolo picking
T - tapping
S - slap
P - pop
< - fade in
^ - brush up
v - brush down





Comments


Popular 38 Special tabs & chords
Caught Up In You 1 Chords
You Keep Runnin' Away Chords
Hold On Loosely Drum Tabs
If Id Be The One Tabs
One Time For Old Times Tabs
Robin Hood Tabs
Rocking Into The Night Tabs
Somebody Like You Tabs
Rebel To Rebel Ukulele
You Keep Runnin Away Ukulele


Song lyrics



↑ Back to top | Tablatures and chords are parodies/interpretations of the original songs. You may use it for private study, scholarship, research or language learning purposes only
© 2014 AZChords.com Contact us | Privacy policy | DMCA | Add/correct tabs | Request tabs | Top 50 tabs