» » »

38 Special, Somebody Like You Tabs (ver.1)

Artists:  A B C D E F G H I J K L M N O P Q R S T U V W X Y Z # 

Somebody Like You Tabs (ver.1)

38 Special Tabs
Rating:
5/5 (2 votes)
Somebody Like You lessons Tabs too difficult? Try these video lessons and learn fast
                #   If you like this tab, please rate it above.  Thank you.


  G=============================================E F F#       
|-----------------|-----------------|-----------------|
|-----------------|-----------------|-----------------|
|-----------------|-----------------|-----------------|
|-----------------|-----------------|-----------------|
|-5-5-5-5-5-5-5-5-|-5-5-5-5-5-5-5-5-|-5-5-5-5-5-2-3-4-|
|-3-3-3-3-3-3-3-3-|-3-3-3-3-3-3-3-3-|-3-3-3-3-3-0-1-2-|

  G         B C     G         B C D   G         B C     G         B C D
|-----------------|-----------------|-----------------|-----------------|
|-------------5---|-------------5-6-|-------------5---|-------------5-6-|
|-4-4-4-4-4---5---|-4-4-4-4-4---5-6-|-4-4-4-4-4---5---|-4-4-4-4-4---5-6-|
|-5-5-5-5-5---5---|-5-5-5-5-5---5-6-|-5-5-5-5-5---5---|-5-5-5-5-5---5-6-|
|-----------2-3---|-----------2-3-5-|-----------2-3---|-----------2-3-5-|
|-----------------|-----------------|-----------------|-----------------|
(Double chord means double strike)
G                GG         CC                    CC
Should’a kept my distance,    Should’a known what I be riskin’
GG                     GG                     CC   CC      D
  But nothin’ short of holding you would ever do,        Darlin’
Em               F#m     C                         D  
If we could be together,   I would wait for you forever
Em            F#m       C                  
But how am I gonna’ win  if you never lose, 

F#F#  G                GG         CC                    CC
      I could feel the pressure,    I could see you were something special
GG                     GG              CC          CC      D
  I couldn't walk away from you if I'd tried,              Darlin’

Em               F#m     C                         D  
I wanna be near you, If only you'd feel like I do
Em            F#m                   
I must've had it wrong, I should’a known
G         B   C         D        G    
Somebody like you could break my heart
  C    D           Em
|-----------------|-----------------|
|-----------------|-----------------|
|---------2---4-5-|2----------------|
|-3-2-3-5---5-----|-----------------|
|-----------------|-----------------|
                   Em            C                 D
                   Somebody like you could tear my world apart, oh yeah
G         B   C         D               G    
Somebody like you could keep me in the dark
  C    D           Em
|-----------------|-----------------|
|-----------------|-----------------|
|---------2---4-5-|2----------------|
|-3-2-3-5---5-----|-----------------|
|-----------------|-----------------|
                   Em          C                  D
                   Somebody like you could break my heart, yeah, yeah

  G         B C     G         B C D
|-----------------|-----------------|
|-------------5---|-------------5-6-|
|-4-4-4-4-4---5---|-5-5-5-5-5---5-6-|
|-5-5-5-5-5---5---|-5-5-5-5-5---5-6-|
|-----------2-3---|-----------2-3-5-|
|-----------------|-----------------|

G                  GG     CC                  CC
I knew that I was fallin’,  I could hear your heart beat callin’, I was
GG              GG                        CC       CC       D
hopin’ you'd be mine before the night was through,          Darlin’

Em               F#m        C                              D  
I could keep on loving you, If there's a chance to somehow break thru
Em               F#m       
I must've had it wrong, I should’a known

G         B   C         D        G      
Somebody like you could break my heart
  C    D           Em
|-----------------|-----------------|
|-----------------|-----------------|
|---------2---4-5-|2----------------|
|-3-2-3-5---5-----|-----------------|
|-----------------|-----------------|
                   Em            C     D
                   Somebody like you baby
Em            C       D
Somebody like you I'm tellin ya
Em            C                  D
Somebody like you could break my heart, yeah, yeah

(Lead Break)
Em     F#       C       D
Em     F#       C       D

D       Em                 G           C
Guess I new right from the start, That you were a pretender
D          Em              G            C
But it was you who held my heart, I got love I wanna send you
              D
Yeah, are you ready to surrender, oh yeah 

G         B   C         D        G    C    D  
Somebody like you could break my heart

  C    D           Em
|-----------------|-----------------|
|-----------------|-----------------|
|---------2---4-5-|2----------------|
|-3-2-3-5---5-----|-----------------|
|-----------------|-----------------|
                   Em            C                 D
                   Somebody like you could tear my world apart, oh yeah
G         B   C         D       G             
Somebody like you could keep my in the dark  
 C    D           Em
|-----------------|-----------------|
|-----------------|-----------------|
|---------2---4-5-|2----------------|
|-3-2-3-5---5-----|-----------------|
|-----------------|-----------------|
                   Em            C     D
                   Somebody like you baby
Em            C       D
Somebody like you I'm tellin ya
Em            C                  D
Somebody like you could break my heart

  G         B C     G         B C D   G         B C     G
|-----------------|-----------------|-----------------|-3---------------|
|-------------5---|-------------5-6-|-------------5---|-3---------------|
|-4-4-4-4-4---5---|-5-5-5-5-5---5-6-|-4-4-4-4-4---5---|-4---------------|
|-5-5-5-5-5---5---|-5-5-5-5-5---5-6-|-5-5-5-5-5---5---|-5---------------|
|-----------2-3---|-----------2-3-5-|-----------2-3---|-5---------------| 
|-----------------|-----------------|-----------------|-3---------------|
            

comments powered by Disqus
↑ Back to top | 38 Special Tabs for Somebody Like You. Lyrics for acoustic guitar and electric guitar. Tablatures and chords are parodies/interpretations of the original songs. You may use it for private study, scholarship, research or language learning purposes only