>
 >
See Me In Your Eyes

See Me In Your Eyes Bass Tabs

38 Special - See Me In Your Eyes chords, tabs, tablatures, lyrics

Guitar lessons | Add/correct | Request | Top 50 tabs Artists:  A B C D E F G H I J K L M N O P Q R S T U V W X Y Z 0-9

See Me In Your Eyes Bass Tabs – 38 Special

CD, Sheet music, Poster

Do you like See Me In Your Eyes? Share with your friends now
Bass TabsTabs
-----------------------------------------------------------------------------


-----------------------------------------------------------------------------


Tuning: Half step down

=============================================================================

Bass



G||-------|-------|-------|-------|-------|-------|-------|-------|-------|
D||-------|-------|-------|-------|-------|-------|-------|-------|-------|
A||-------|-------|-------|-------|-------|-------|-------|-------|-------|
E||-------|-------|-------|-------|-------|-------|-------|-------|-------|


  H        Q     Q       E  E  Q    E  E  E  E     E  E  Q    E  E  E  E
----------------------|-------------------------|-------------------------|
----------------------|-------------------------|-------------------------|
----------------------|-------------------------|-------------------------|
-----------8\----3----|--5--5----------3-----3--|--5--5----------5-----3--|


  Q    E  Q    E  E  E     Q    Q    Q     E  E     E  E  Q    E  E  E  E
------------------------|------------------------|-------------------------|
------------------------|------------------------|-------------------------|
---------------3--------|------------------------|-------------------------|
--3----3-------------5--|--5---------8\----3--3--|--5--5----------3-----3--|


  E  E  Q    E  E  E  E     Q    E  Q    E  E  E     E  E  E  E  E  E  E  E
-------------------------|------------------------|--------------------------|
-------------------------|------------------------|--------------------------|
-------------------------|---------------3--------|--------------------------|
--5--5----------5-----5--|--3------------------3--|--5--5--5--5--5--5--5--5--|


  E  E  E  E  E  E  E  E     E  E  E  E  E  E  E  E
--------------------------|--------------------------|
--------------------------|--------------------------|
--------------------------|--------------------------|
--6--6--6--6--6--6--6--5--|--L--5--5--5--5--5--5--3--|


  E  E  E  E  E  E  E  E     E  E  E  E  E  E  E  E
--------------------------|--------------------------|
--------------------------|--------------------------|
-----------------------2--|--L--2--2--3--3--3--5--6--|
--L--3--3--5--5--5--5-----|--------------------------|


  E  E  E  E  E  E  E  E     E  E  E  E  E  E  E  E
--------------------------|--------------------------|
--------------------------|--------------------------|
--6--6--6--6--6-----6--5--|--L--5--5--5--5--3--------|
-----------------6--------|--------------------6--4--|


  E  E  E  E  E  E  E  E     E  E  E  E  E  E  E  E
--------------------------|--------------------------|
--------------------------|--------------------------|
--------------------------|-----------------3--5--6--|
--L--4--4--4--4--3--4--6--|--L--6--6--6--6-----------|


  E  E  E  E  E  E  E  E     E  E  E  E  E  E  E  E
--------------------------|--------------------------|
--------------------------|--------------------------|
--L--6--6--6--6-----6--5--|--5--5--5--6--5--3--------|
-----------------6--------|--------------------6--4--|


  E  E  E  E  E  E  E  E     E  E  E  Q    E  E  E     E  E  E  E  E  E  E  E
--------------------------|-------------------------|--------------------------|
--------------------------|-------------------------|--------------------------|
--------------------------|-------------------------|--------------------------|
--4--4--4--3--3--3--3--1--|--L--3--4--6----6--6--8--|--L--8--8--8--8--6-----8--|


  H        Q     E  E     E  E  Q    E  E  E  E     E  E  Q    E  E  E  E
-----------------------|-------------------------|-------------------------|
-----------------------|-------------------------|-------------------------|
-----------------------|-------------------------|-------------------------|
--L--------8\----3--3--|--5--5----------3-----3--|--5--5----------5-----3--|


  Q    E  Q    E  E  E     Q    Q    Q     E  E     E  E  Q    E  E  E  E
------------------------|------------------------|-------------------------|
------------------------|------------------------|-------------------------|
---------------3--------|------------------------|-------------------------|
--3----3-------------5--|--5---------8\----3--3--|--5--5----------3-----3--|


  E  E  Q    E  E  E  E     Q    E  Q    E  E  E     E  E  E  E  E  E  E  E
-------------------------|------------------------|--------------------------|
-------------------------|------------------------|--------------------------|
-------------------------|---------------3--------|--------------------------|
--5--5----------5-----5--|--3------------------3--|--5--5--5--5--5--5--5--5--|


  E  E  E  E  E  E  E  E     E  E  E  E  E  E  E  E
--------------------------|--------------------------|
--------------------------|--------------------------|
--------------------------|--------------------------|
--6--6--6--6--6--6--6--5--|--L--5--5--5--5--5--5--3--|


  E  E  E  E  E  E  E  E     E  E  E  E  E  E  E  E
--------------------------|--------------------------|
--------------------------|--------------------------|
-----------------------2--|--L--2--2--3--3--3--5--6--|
--L--3--3--5--5--5--5-----|--------------------------|


  E  E  E  E  E  E  E  E     E  E  E  E  E  E  E  E
--------------------------|--------------------------|
--------------------------|--------------------------|
--6--6--6--6--6-----6--5--|--L--5--5--5--5--3--------|
-----------------6--------|--------------------6--4--|


  E  E  E  E  E  E  E  E     E  E  E  E  E  E  E  E
--------------------------|--------------------------|
--------------------------|--------------------------|
--------------------------|-----------------3--5--6--|
--L--4--4--4--4--3--4--6--|--L--6--6--6--6-----------|


  E  E  E  E  E  E  E  E     E  E  E  E  E  E  E  E
--------------------------|--------------------------|
--------------------------|--------------------------|
--L--6--6--6--6-----6--5--|--5--5--5--6--5--3--------|
-----------------6--------|--------------------6--4--|


  E  E  E  E  E  E  E  E     E  E  E  Q    E  E  S S
--------------------------|--------------------------|
--------------------------|--------------------------|
--------------------------|-----------1----1--1------|
--4--4--4--3--3--3--3--1--|--L--3--4-------------1-3-|


  E  E  E  E  E  E  E  E     E  E  E  E  E  E  E  E
--------------------------|--------------------------|
--------------------------|--------------------------|
--------------------------|--------------------6--8--|
--4--4--4--4--4--3--4--6--|--L--6--6--6--6--8--------|


  E  E  E  E  E  E  E  E     E  E  E  E  E   E  E   E
--------------------------|----------------------------|
--------------------------|----------------------------|
--------------------------|-----------------10--8------|
--4--4--4--4--4--3--4--6--|--L--6--6--6--6---------10--|


  E  E  E  E  E  E  E  E     E  E  E  E  E  E  E  E     E  E  E  E  E  Q    E
--------------------------|--------------------------|-------------------------|
--------------------------|--------------------------|-------------------------|
--------------------------|--------------------------|--3--3--3--3--3--3----3--|
--4--4--4--4--4--3--4--6--|--L--6--6--6--6--6--6--6--|-------------------------|


  E    Q.      E  E  E  E     E  E  E  E  E  E  E  E
---------------------------|--------------------------|
---------------------------|--------------------------|
--L--/10\------3--3--3--3--|--4--4--4--4--4--4--4--4--|
---------------------------|--------------------------|


  E  E  E  E  E   E  E  E     E  E  E  E  E  E  E  E
---------------------------|--------------------------|
---------------------8--6--|--------------------------|
--4--4--4--4--4--/8--------|--1--1--1--1--1--1--1--1--|
---------------------------|--------------------------|


  E  E  E  E   E  E  E  E     E  E  E  E  E  E  E  E
---------------------------|--------------------------|
------------------8--6--8--|--------------------------|
--1--1--1--1--/8-----------|--4--4--4--4--4--4--4--4--|
---------------------------|--------------------------|


  E  E  E  E  E   E  E  E     E  E  E  E  E  E  E  E
---------------------------|--------------------------|
---------------------8--6--|--------------------------|
--4--4--4--4--4--/8--------|--------------------------|
---------------------------|--6--6--6--6--6--6--6--6--|


  E  E  E  E  E  E  E  E     E  E  E  E  E  E  E  E
--------------------------|--------------------------|
--8--5--------------------|--------------------------|
--------8--5--------5--8--|--6--6--6--6--6-----6--5--|
--------------6--8--------|-----------------6--------|


  E  E  E  E  E  E  E  E     E  E  E  E  E  E  E  E
--------------------------|--------------------------|
--------------------------|--------------------------|
--L--5--5--5--5--3--------|--------------------------|
--------------------6--4--|--L--4--4--3--4--6--8--6--|


  E  E  E  E  E  E  E  E     E  E  E  E  E  E  E  E
--------------------------|--------------------------|
--------------------------|--------------------------|
--------------6--6--8--6--|--L--6--6--6--6-----6--5--|
--L--6--6--8--------------|-----------------6--------|


  E  E  E  E  E  E  E  E     E  E  E  Q    E  E  E     E  E  E  E  E  E  E  E
--------------------------|-------------------------|--------------------------|
--------------------------|-------------------------|--------------------------|
--L--5--5--6--5--3--------|-------------------------|-----------------------4--|
--------------------6--4--|--L--4--4--3----3--3--6--|--6--6--6--6--6--6--6-----|


  E  E  E  E  E  E  E  E     E  E  E  E  E   E  E  E
--------------------------|---------------------------|
--------------------------|---------------------8--6--|
--4--4--4--4--4--4--4--4--|--4--4--4--4--4--/8--------|
--------------------------|---------------------------|


  E  E  E  E  E  E  E  E     E  E  E  E   E  E  E  E
--------------------------|---------------------------|
--------------------------|------------------8--6--8--|
--1--1--1--1--1--1--1--1--|--1--1--1--1--/8-----------|
--------------------------|---------------------------|


  E  E  E  E  E  E  E  E     E  E  E  E  E   E  E  E
--------------------------|---------------------------|
--------------------------|---------------------8--6--|
--4--4--4--4--4--4--4--4--|--4--4--4--4--4--/8--------|
--------------------------|---------------------------|


  E  E  E  E  E  E  E  E     E  E  E  E  E  E  E  E
--------------------------|--------------------------|
--------------------------|--------------6--5-----8--|
--------------------5--5--|--5--6--6--8--------8-----|
--6--6--6--8--8--8--------|--------------------------|


  E  E  E  E  E  E  E  E     E  E  E  E  E  E  E  E
--------------------------|--------------------------|
--------------------------|--------------------------|
--6--6--6--6--6-----6--5--|--L--5--5--5--5--3--------|
-----------------6--------|--------------------6--4--|


  E  E  E  E  E  E  E  E     E  E  E  E  E  E  E  E
--------------------------|--------------------------|
--------------------------|--------------------------|
--------------------------|--------------5--6--8--6--|
--L--4--4--3--4--6--8--6--|--L--6--6--8--------------|


  E  E  E  E  E  E  E  E     E  E  E  E  E  E  E  E
--------------------8--7--|--L--7--7--7--7-----------|
-----------------8--------|--------------------------|
--L--6--6--6--6-----------|--------------------------|
--------------------------|-----------------8--6--4--|


  E  E  E  E  E  E  E  E     E  E  E  E  E  E  E  E
--------------------------|--------------------------|
--------------------------|--------------5--3--------|
-----------------1--3--1--|--L--1--1--5--------5--6--|
--L--4--4--3--4-----------|--------------------------|


  E  E  E  E  E  E  E  E     E  E  E  E  E  E  E  E
--------------------------|--------------------------|
--------------------------|--------------------------|
--6--6--6--6--6-----6--5--|--L--5--5--5--5--3--------|
-----------------6--------|--------------------6--4--|


  E  E  E  E  E  E  E  E     E  E  E  E  E  E  E  E
--------------------------|--------------------------|
--------------------------|--------------------------|
--------------------------|--------------5--6--8--6--|
--L--4--4--3--4--6--8--6--|--L--6--6--8--------------|


  E  E  E  E  E  E  E  E     E  E  E  E  E  E  E  E
--------------------8--7--|--L--7--7--7--7-----------|
-----------------8--------|--------------------------|
--L--6--6--6--6-----------|--------------------------|
--------------------------|-----------------8--6--4--|


  E  E  E  E  E  E  E  E     E  E  E  E     E  E  E  E  E  E  E  E
--------------------------|--------------|--------------------------|
--------------------------|--------------|--------------------------|
--------------------------|--------------|--6--6--6--6--6-----6--5--|
--L--4--4--3--L--3--3--1--|--L--1--3--4--|-----------------6--------|


  E  E  E  E  E  E  E  E     E  E  E  E  E  E  E  E
--------------------------|--------------------------|
--------------------------|--------------------------|
--L--5--5--5--5--3--------|--------------------------|
--------------------6--4--|--L--4--4--3--4--6--8--6--|


  E  E  E  E  E  E  E  E     E  E  E  E  E  E  E  E
--------------------------|--------------------------|
--------------------------|--------------5--3--------|
--------------------------|-----------5--------5-----|
--4--4--4--4--4--4--4--6--|--L--6--6--------------6--|


  E  E  E  E  E  E  E  E     E  E  E  E  E  E  E  E     W
--------------------------|--------------------------|-------------------|
--------------------------|--------------------------|-------------------|
--------------------------|--------------------3--5--|--6----------------|
--4--4--4--4--4--3--4--6--|--6--6--6--6--6--6--------|-------------------|


-----||
-----||
-----||
-----||




Duration Legend
---------------
W - whole
H - half
Q - quarter
E - 8th
S - 16th
T - 32nd
X - 64th
. - note dotted
|-n-|  - n-tuplets


Tablature Legend
----------------
L - tied note
x - dead note
g - grace note
(n) - ghost note
> - accentuded note
NH - natural harmonic
AH - artificial harmonic
TH - tapped harmonic
SH - semi harmonic
PH - pitch harmonic
h - hammer on
p - pull off
b - bend
br - bendRelease
pb - preBend
pbr - preBendRelease
brb - bendReleaseBend
\n/ - tremolo bar dip
\n - tremolo bar dive
-/n - tremolo bar Release up
/n\ - tremolo bar inverted dip
/n - tremolo bar return
-\n - tremolo bar Release down
S - shift slide
s - legato slide
/ -  slide into from below or out of upwards
\ -  slide into from above or out of downwards
~ - vibrato
W - wide vibrato
tr - trill
TP - tremolo picking
T - tapping
S - slap
P - pop
< - fade in
^ - brush up
v - brush down





Comments


Popular 38 Special tabs & chords
Back Where You Belong Bass Tabs
Hold On Loosly Chords
Homeless Guitar Chords
Second Chance Chords
Second Chance 1 Chords
Fade To Blue Tabs
Homeless Guitar Tabs
I Oughta Let Go Tabs
Somebody Like You Tabs
Take 'em Out Tabs


Song lyrics



↑ Back to top | Tablatures and chords are parodies/interpretations of the original songs. You may use it for private study, scholarship, research or language learning purposes only
© 2014 AZChords.com Contact us | Privacy policy | DMCA | Add/correct tabs | Request tabs | Top 50 tabs