>
 >
Long Distance Affair

Long Distance Affair Bass Tabs

38 Special - Long Distance Affair chords, tabs, tablatures, lyrics

Guitar lessons | Add/correct | Request | Top 50 tabs Artists:  A B C D E F G H I J K L M N O P Q R S T U V W X Y Z 0-9

Long Distance Affair Bass Tabs – 38 Special

CD, Sheet music, Poster

Do you like Long Distance Affair? Share with your friends now
Bass TabsTabs
-----------------------------------------------------------------------------
		                  
            
-----------------------------------------------------------------------------


Tuning: standard tuning

=============================================================================

Bass



                                     PM PM PM PM PM PM PM PM  
                                     E  E  E  E  E  E  E  E   
G||-------|-------|-------|-------|--------------------------|
D||-------|-------|-------|-------|--------------------------|
A||-------|-------|-------|-------|--------------------------|
E||-------|-------|-------|-------|--0--0--0--0--0--0--0--2--|


  PM PM PM PM PM PM PM PM    PM PM PM PM PM PM PM PM  
  E  E  E  E  E  E  E  E     E  E  E  E  E  E  E  E   
--------------------------|--------------------------|
--------------------------|--------------------------|
-----------------------5--|--5--5--5--5--5--5--5-----|
--2--2--2--2--2--2--2-----|-----------------------5--|


  PM PM PM PM PM PM PM PM    PM PM PM PM PM PM PM PM  
  E  E  E  E  E  E  E  E     E  E  E  E  E  E  E  E   
--------------------------|--------------------------|
--------------------------|--------------------------|
--------------------------|--------------------------|
--5--5--5--5--5--3--2--0--|--0--0--0--0--0--0--0--2--|


  PM PM PM PM PM PM PM PM    PM PM PM PM PM PM PM PM  
  E  E  E  E  E  E  E  E     E  E  E  E  E  E  E  E   
--------------------------|--------------------------|
--------------------------|--------------------------|
-----------------------5--|--5--5--5--5--5--5--5-----|
--2--2--2--2--2--2--2-----|-----------------------5--|


  PM PM PM PM PM PM PM PM    PM PM PM PM PM PM PM PM  
  E  E  E  E  E  E  E  E     E  E  E  E  E  E  E  E   
--------------------------|--------------------------|
--------------------------|--------------------------|
--------------------------|--------------------------|
--5--5--5--5--5--3--2--0--|--0--0--0--0--0--0--0--2--|


  PM PM PM PM PM PM PM PM    PM PM PM PM PM PM PM PM  
  E  E  E  E  E  E  E  E     E  E  E  E  E  E  E  E   
--------------------------|--------------------------|
--------------------------|--------------------------|
-----------------------5--|--5--5--5--5--5--5--5-----|
--2--2--2--2--2--2--2-----|-----------------------5--|


  PM PM PM PM PM PM PM PM    PM PM PM PM PM PM PM PM  
  E  E  E  E  E  E  E  E     E  E  E  E  E  E  E  E   
--------------------------|--------------------------|
--------------------------|--------------------------|
--------------------------|--------------------------|
--5--5--5--5--5--3--2--0--|--0--0--0--0--0--0--0--2--|


  PM PM PM PM PM PM PM                                
  E  E  E  E  E  E  E  E     E  E  E  E  E  E  E  E   
--------------------------|--------------------------|
--------------------------|--------------------------|
--------------------------|--------------------------|
--2--2--2--2--2--2--2--3--|--3--3--3--3--3--3--3--5--|


  E  E  E  E  E  E  E  E     E  E  E  E  E  E  E  E   
--------------------------|--------------------------|
--------------------------|--------------------------|
-----------------2-----4--|--L--4--4--4--4--2--------|
--5--5--5--5--5-----5-----|--------------------4--5--|


  E  E  E  E  E  E  E  E     E  E  E  E  E  E  E  E   
--------------------------|--------------------------|
--------------7-----------|--------------------------|
-----------7-----7-----4--|--L--4--4--4--4--2--------|
--L--5--5-----------------|--------------------4--0--|


  E  E  E  E  E  E  E  E     Q    E  E  H            Q.     Q.     E  E   
--------------------------|-----------------------|----------------------|
--------------------------|-----------------------|----------------------|
--------------------------|-----------------------|----------------------|
--2--2--2--2--2--2--2--2--|--7-------7--7\--------|--5------0------2--0--|


  Q    E  E  H            E  E  E  E  E  E  Q       Q    E  E  H         
-----------------------|-------------------------|----------------------|
-----------------------|-------------------------|----------------------|
-----------------------|-------------------------|----------------------|
--7-------7--7\--------|-----5--5--4--5--4--0----|--7-------7--7--------|


  Q.     Q    E  Q       E  E  E  E  E  E  E  E     E  E  E  E  E  E  E  E   
----------------------|--------------------------|--------------------------|
----------------------|--------------------------|--------------------------|
----------------------|--------------------------|--------------------------|
--5------0----0--0----|--2--2--2--2--2--2--2--2--|--2--2--2--2--2--2--2--2--|


  Q    E  E  H           Q    E  E  H           Q    E  E  E  E  E  E   
----------------------|----------------------|-------------------------|
----------------------|----------------------|-------------------------|
--4-------4--4--------|----------------------|-------------------------|
----------------------|--5-------5--5--------|--0-------0--0--0--2--4--|


  E  E  E  E  E  E  E  E     H.           E  E     Q.     Q.     Q      
--------------------------|---------------------|----------------------|
--------------------------|---------------------|----------------------|
--------------------------|---------------------|--5------4------------|
--5--5--5--5--5--5--5--5--|--0------------L--7--|----------------7\----|


  H.           E  E     W                   Q.      E  E  E  E  E   
---------------------|-------------------|-------------------------|
---------------------|-------------------|-------------------------|
---------------------|-------------------|-------------7-----7-----|
--0------------L--5--|--L----------------|--0------/7-----7-----5--|


                             PM PM PM PM PM PM PM PM  
  E  E  E  E  E  E  E  E     E  E  E  E  E  E  E  E   
--------------------------|--------------------------|
--------------------------|--------------------------|
--------------------------|--------------------------|
--L--5--5--5--5--3--2--0--|--0--0--0--0--0--0--0--2--|


  PM PM PM PM PM PM PM PM    PM PM PM PM PM PM PM PM  
  E  E  E  E  E  E  E  E     E  E  E  E  E  E  E  E   
--------------------------|--------------------------|
--------------------------|--------------------------|
-----------------------5--|--5--5--5--5--5--5--5-----|
--2--2--2--2--2--2--2-----|-----------------------5--|


  PM PM PM PM PM PM PM PM    PM PM PM PM PM PM PM PM  
  E  E  E  E  E  E  E  E     E  E  E  E  E  E  E  E   
--------------------------|--------------------------|
--------------------------|--------------------------|
--------------------------|--------------------------|
--5--5--5--5--5--3--2--0--|--0--0--0--0--0--0--0--2--|


  PM PM PM PM PM PM PM                                
  E  E  E  E  E  E  E  E     E  E  E  E  E  E  E  E   
--------------------------|--------------------------|
--------------------------|--------------------------|
--------------------------|--------------------------|
--2--2--2--2--2--2--2--3--|--3--3--3--3--3--3--3--5--|


  E  E  E  E  E  E  E  E     E  E  E  E  E  E  E  E   
--------------------------|--------------------------|
--------------------------|--------------------------|
-----------------2-----4--|--L--4--4--4--4--2--------|
--5--5--5--5--5-----5-----|--------------------4--5--|


  E  E  E  E  E  E  E  E     E  E  E  E  E  E  E  E   
--------------------------|--------------------------|
--------------7-----------|--------------------------|
-----------7-----7-----4--|--L--4--4--4--4--2--------|
--L--5--5-----------------|--------------------4--0--|


  E  E  E  E  E  E  E  E     Q    E  E  H            Q.     Q.     E  E   
--------------------------|-----------------------|----------------------|
--------------------------|-----------------------|----------------------|
--------------------------|-----------------------|----------------------|
--2--2--2--2--2--2--2--2--|--7-------7--7\--------|--5------0------2--0--|


  Q    E  E  H            E  E  E  E  E  E  Q       Q    E  E  H         
-----------------------|-------------------------|----------------------|
-----------------------|-------------------------|----------------------|
-----------------------|-------------------------|----------------------|
--7-------7--7\--------|-----5--5--4--5--4--0----|--7-------7--7--------|


  Q.     Q    E  Q       E  E  E  E  E  E  E  E     E  E  E  E  E  E  Q     
----------------------|--------------------------|-------------------------|
----------------------|--------------------------|-------------------------|
----------------------|--------------------------|-------------------------|
--5------0----0--0----|--2--2--2--2--2--2--2--2--|--2--2--2--2--2--2--2----|


  E  Q    E  E  E  Q       H        E  E  E  E     H        E  E  E  E   
------------------------|-----------------------|-----------------------|
------------------------|-----------------------|-----------------------|
--4----------2--4-------|-----------4-----------|-----------------------|
------------------------|--------------2--4--0--|--0--------L--3--4--5--|


  H.           E  E     E  H        E  E  E     H        E  E  E  E   
---------------------|-----------------------|-----------------------|
---------------------|-----------------------|-----------------------|
------------------2--|--4--------------4--2--|-----------------2-----|
--5------------L-----|--------------4--------|-----------2--4-----5--|


  H        E  E  E  E     E  E  E  E  E  E  E  E     Q    Q    E  E  Q     
-----------------------|--------------------------|-----------------------|
-----------------------|--------------------------|-----------------------|
--------------------2--|--L--2--2--2--2--2--2--2--|--4---------4--4-------|
--5--------L--4--5-----|--------------------------|-----------------------|


  H        E  E  E  E     H        E  E  E  E     Q.     E  E  E  E  E   
-----------------------|-----------------------|------------------------|
-----------------------|-----------------------|------------------------|
-----------5--4--5--7--|--7--------L-----------|---------------2--------|
-----------------------|--------------3--4--5--|--L------5--5-----5--4--|


  E  E  E  E  E  E  E  E     E  E  E  E  E  E  E  E   
--------------------------|--------------------------|
--------------------------|--------------------------|
--------------------------|--------------------------|
--2--2--2--2--2--2--2--2--|--2--2--2--0--2--3--4--5--|


  E  E  E  E  E  E  E  E     E  E  E  E     E  E  E  E  E  E  E  E   
--------------------------|--------------|--------------------------|
--------------------------|--------------|--------------------------|
--------------------------|-----------2--|--2--2--2--2--2--2--2--2--|
--L--5--5--5--5--5--5--5--|--5--5--5-----|--------------------------|


  E  Q    E  E  Q.         Q    H        E  E     Q    H        E  E   
-----------------------|-----------------------|----------------------|
-----9-------9---------|--11----------------7--|--7-------------------|
--9-------9------------|-----------------------|----------------------|
-----------------------|-----------------------|-------------------0--|


  E  E  E  E  E  E  E  E     E  E  E  E  E  E  E  E     Q    E  E  E  E  E  E   
--------------------------|--------------------------|-------------------------|
--------------------------|--------------------------|-------------------------|
--------------------------|-----------------------2--|--L----2--2--2--2--2--2--|
--0--0--0--0--0--0--0--5--|--5--5--5--5--5--5--5-----|-------------------------|


  E  E  E  E  E  E  E  E     E  E  E  E  E  E  E  E     E  E  E  E  E  Q    E   
--------------------------|--------------------------|-------------------------|
--------------------------|--------------------------|-------------------------|
--2--2--2--2--2--2--------|--------------------------|----------------------2--|
--------------------4--5--|--L--5--5--5--5--5--5--5--|--L--5--2--0--2--5-------|


  E  E  E  E  E  E  E  E     E  E  E  E  E  E  E  E   
--------------------------|--------------------------|
--------------------------|--------------------------|
--L--2--2--2--2--2--2--2--|--2--2--2--2--2--2--------|
--------------------------|--------------------4--5--|


  E  E  E  E  E  E  E  E     E  E  E  E  E  E  E  E   
--------------------------|--------------------------|
--------------------------|--------------------------|
--------------------------|-----2--------------------|
--L--5--5--5--5--5--5--5--|--L-----5--4--5--4--0--0--|


  E  E  E  E  E  E  E  E     E  E  E  E  E  E  E  E   
--------------------------|--------------------------|
--------------------------|--------------------------|
-----------------------2--|--L--2--2--2--2--2--2--4--|
--L--0--0--0--0--0--0-----|--------------------------|


  E  E  E  E  E  E  E  E     E  E  E  E  E  E  Q        W                 
--------------------------|--------------------------|-------------------|
--------------------------|--------------------------|-------------------|
--L--4--4--4--4--2--4--5--|--L--5--5--5--4--5--7\----|-------------------|
--------------------------|--------------------------|--0----------------|


  W                   H.           E  E     W                 
-------------------|---------------------|-------------------|
-------------------|---------------------|-------------------|
-------------------|---------------------|-------------------|
--L----------------|--0------------L--2--|--2----------------|


  H.           E  E     H        E  E  E  E     E  E  E  E  E  E  E  E   
---------------------|-----------------------|--------------------------|
---------------------|-----------------------|--------------------------|
--5------------5-----|-----------------------|--------------------------|
------------------5--|--5--------5--3--2--0--|--L--0--0--0--0--0--0--2--|


  E  E  E  E  E  E  E  E     E  E  E  E  E  E  E  E   
--------------------------|--------------------------|
--------------------------|--------------------------|
-----------------------5--|--5--5--5--5--5--5--5-----|
--L--2--2--2--2--2--2-----|-----------------------5--|


  E  E  E  E  E  E  E  E     E  E  E  E  E  E  E  E     E  E  E  E  Q    E  E   
--------------------------|--------------------------|-------------------------|
-----------4--2-----------|--------------------6--7--|--L--7--7--4--7----7-----|
-----------------2-----4--|--L--4--4--4--4--4--------|----------------------4--|
--5--5--5-----------------|--------------------------|-------------------------|


  E  E  E  E  E  E  E  E     H        E  E  Q        Q    E  E  H          
--------------------------|-----------------------|-----------------------|
--------------------------|-----------------------|-----------------------|
--L--4--4--4--4--2--------|-----------9--7--------|-----------------------|
--------------------4--0--|--2--------------9\----|--7-------7--7\--------|


  Q.     Q.     E  E     Q    E  E  H            E  E  E  E  E  E  Q     
----------------------|-----------------------|-------------------------|
----------------------|-----------------------|-------------------------|
----------------------|-----------------------|-------------------------|
--5------0------2--0--|--7-------7--7\--------|-----5--5--4--5--4--0----|


  Q    E  E  H           Q.     Q    E  Q       Q    E  E  Q     Q      
----------------------|----------------------|-------------------------|
----------------------|----------------------|-------------------------|
----------------------|----------------------|--2-------2--2s----9\----|
--7-------7--7--------|--5------0----0--0----|-------------------------|


  E  E  E  E  E  E  Q       E  Q    E  H           E  Q    E  E  E  E  E   
-------------------------|----------------------|-------------------------|
-------------------------|----------------------|-------------------------|
-------------------------|--2--2----2--2--------|--2--2----2--L-----------|
-----5--5--4--5--4--0----|----------------------|----------------0--2--5--|


  Q    E  E  E  E  Q       E  E  E  E  E  E  Q       E  Q    E  E  Q.      
------------------------|-------------------------|-----------------------|
------------------------|-------------------------|-----------------------|
--2----2--2--2--2--2----|-------------------------|--2--2----2--2--2------|
------------------------|-----5--5--4--5--4--0----|-----------------------|


  E  Q    E   E  E  E  E     E  E  E  E  E  E  Q        E  E  E  E  E  E  Q     
-----------------4--------|--------------------------|-------------------------|
----------2h--4-----4-----|--------------------------|-------------------------|
--2--2-----------------2--|--2--2--2--2--2--2--2\----|-------------------------|
--------------------------|--------------------------|-----5--5--4--5--4--0----|


  E  E  E  E  E  E  E  E     E  E  E  E  E  E  E  E   
--------------------------|--------------------------|
--------------------------|--------------------------|
--2--2--2--2--2--2--2--2--|--2--2--2--2--2--------0--|
--------------------------|-----------------0--2-----|


  E  E  E  E  E  E   Q        E  E  E  E  E  E  Q     
---------------------------|-------------------------|
---------------------------|-------------------------|
--2--2--2--2--2--2--/9\----|-------------------------|
---------------------------|-----5--5--4--5--4--0----|


  E  E  E  E  E  E  E  E     E  E  E  E  E  E  E  E   
--------------------------|--------------------------|
--------------------------|--------------------------|
--2--2--2--2--2--2--2--2--|--2--2--2--2--2--------0--|
--------------------------|-----------------0--2-----|


  E  E  E  E  E  E   Q        E  E  E  E  E  E  Q     
---------------------------|-------------------------|
---------------------------|-------------------------|
--2--2--2--2--2--2--/9\----|-------------------------|
---------------------------|-----5--5--4--5--4--0----|


  E  E  E  E  E  E  E  E     E  E  E  E  E  E  E  E   
--------------------------|--------------------------|
--------------------------|--------------------------|
--2--2--2--2--2--2--2--2--|--2--2--2--2--2--------0--|
--------------------------|-----------------0--2-----|


  E  E  E  E  E  E   Q        E  E  E  E  E  E  Q      
---------------------------|-------------------------||
---------------------------|-------------------------||
--2--2--2--2--2--2--/9\----|-------------------------||
---------------------------|-----5--5--4--5--4--0----||




Duration Legend
---------------
W - whole
H - half
Q - quarter
E - 8th
S - 16th
T - 32nd
X - 64th
. - note dotted
|-n-|  - n-tuplets


Tablature Legend
----------------
L - tied note
x - dead note
g - grace note
(n) - ghost note
> - accentuded note
NH - natural harmonic
AH - artificial harmonic
TH - tapped harmonic
SH - semi harmonic
PH - pitch harmonic
h - hammer on
p - pull off
b - bend
br - bendRelease
pb - preBend
pbr - preBendRelease
brb - bendReleaseBend
\n/ - tremolo bar dip
\n - tremolo bar dive
-/n - tremolo bar Release up
/n\ - tremolo bar inverted dip
/n - tremolo bar return
-\n - tremolo bar Release down
S - shift slide
s - legato slide
/ -  slide into from below or out of upwards
\ -  slide into from above or out of downwards
~ - vibrato
W - wide vibrato
tr - trill
TP - tremolo picking
T - tapping
S - slap
P - pop
< - fade in
^ - brush up
v - brush down





Comments


Popular 38 Special tabs & chords
Homeless Guitar Chords
Rebel To Rebel Chords
Second Chance Chords
20th Century Fox Tabs
Caught Up In You Tabs
Hold On Loosely 2 Tabs
One Time For Old Times Tabs
Rockin' Into The Night Tabs
Take 'em Out Tabs
Fade To Blue Ukulele


Song lyrics



↑ Back to top | Tablatures and chords are parodies/interpretations of the original songs. You may use it for private study, scholarship, research or language learning purposes only
© 2014 AZChords.com Contact us | Privacy policy | DMCA | Add/correct tabs | Request tabs | Top 50 tabs