» » »

36 Crazyfists, We Cannot Deny Tabs (ver.1)

Artists:  A B C D E F G H I J K L M N O P Q R S T U V W X Y Z # 

We Cannot Deny Tabs (ver.1)

36 Crazyfists Tabs
 Rating:
4/5 (4 votes)
We Cannot Deny lessons Tabs too difficult? Try these video lessons and learn fast
1
                	36 CRAZYFISTS, WE CANNOT DENY, REST INSIDE THE FLAMES 
	TUNING C
	
	TAB IS NOT 100% BUT IS ALMOST THERE. JUST A FEW WEIRD NOTES.
	




intro

|------------------|
|------------------|
|--7--10---9---5---|
|------------------|
|------------------|
|------------------|

|--------------------------------------------------------|
|--------------------------------------------------------|
|---7--7-7-7----7--7-7-7---10--10-10-10----10--10-10-10--|
|---8--8-8 8----8--8-8-8----8---8--8--8-----8---8--8--8--|
|--------------------------------------------------------|
|--------------------------------------------------------|
       . . .       . . .        .  .  .         .  .  .       
|------------------------------------------------------------|
|------------------------------------------------------------|
|-9---9--9--9-----9---9--9--9----10-10-10-10-10-10-10-10-----|
|-10--10-10-10----10--10-10-10---11-11-11-11-11-11-11-11-----|
|------------------------------------------------------------|
|------------------------------------------------------------|
       . . .       . . .        
|------------------------------------------------------------------------------------|
|------------------------------------------------------------------------------------|
|----------------8-8-8-8-8----------------------------8-8-8-8-8-----7----------------|
|---5-5-5-5-5------------------7-8-7-----5-5-5-5-5--------------------10-------------|
|---5-5-5-5-5----6-6-6-6-6-----------8---5-5-5-5-5----6-6-6-6-6----------8-----------|
|---5-5-5-5-5----------------------------5-5-5-5-5-----------------------------------|
verse                                                                       x4
|------------------------------------------------------------------------------------|
|----11-11-11--10-10-10----11-11-11--10-10-10-------11-11---10-10--------------------|
|------------------------------------------------------------------------------------|
|----8--8--8---7--7--7------8--8--8---7--7--7--------8--8---7--7---------------------|
|------------------------------------------------------------------------------------| 
|------------------------------------------------------------------------------------|

|----------------------------|
|----------------------------|listen for struming pattern
|---7-12-7-12-3--------------|comes in after 1st verse part 
|----------------------------|
|---5-10 5 10 1--------------|
|----------------------------|
                          x4
|-----------------------------|
|-----------------------------|
|-----------------------------|
|----5--------1-(x12)---------|
|----5-(x12)--1---------------|
|----5--------1---------------|
PRE CHORUS
|-----------------------------------------------------------|
|-----------------------------------------------------------| 
|---7-5-3--7-5-3--5-3-2---5-3-2----7-5-3--7-5-3---2---------|
|---------------------2-------2-------------------2---------|
|---5-3-1--5-3-1--3-1-0---3-1-0----5-3-1--5-3-1---0---------|
|-----------------------------------------------------------|
CHORUS
|------------------------------------------------------------------------------------|
|------------------------------------------------------------------------------------|
|---10-------0-----10/12---12/10--10/9---------10-----0------------------------------|
|----8-x16---0-x6-------------------------------8-----0-----14/15---14/12---14/10----|
|----8-------0------8/10---10/8----8/7----------8-----0------------------------------| 
|----8-------0----------------------------------8-----0-----12/13---12/10---12/8-----|
             
|---------------------------------------------------------------------------------------------|
|---------------------------------------------------------------------------------------------|
|---10-------0-----10/12---12/10--10/9--------10------10-------0-----14/15---14/12---14/10----|
|----8-x16---0-x6--------------------------------x8------x8----0------------------------------|
|----8-------0------8/10---10/8----8/7---------8-------7-------0-----12/13---12/10---12/8-----| 
|----8-------0-------------------------------------------------0------------------------------|
VERSE
|------------------------------------------------------------------------------------|
|----11-11-11--10-10-10----11-11-11--10-10-10-------11-11---10-10--------------------|
|------------------------------------------------------------------------------------|
|----8--8--8---7--7--7------8--8--8---7--7--7--------8--8---7--7---------------------|
|------------------------------------------------------------------------------------| 
|------------------------------------------------------------------------------------|

|----------------------------|
|----------------------------|listen for struming pattern
|---7-12-7-12-3--------------|
|----------------------------|
|---5-10 5 10 1--------------|
|----------------------------|
                          x4
|-----------------------------|
|-----------------------------|
|-----------------------------|
|----5--------1-(x12)---------|
|----5-(x12)--1---------------|
|----5--------1---------------|
            .

pre chorus
|-----------------------------------------------------------|
|-----------------------------------------------------------|
|---7-5-3--7-5-3--5-3-2---5-3-2----7-5-3--7-5-3---2---------|
|---------------------2-------2-------------------2---------|
|---5-3-1--5-3-1--3-1-0---3-1-0----5-3-1--5-3-1---0---------|
|-----------------------------------------------------------|
 CHORUS
|------------------------------------------------------------------------------------|
|------------------------------------------------------------------------------------|
|---10-------0-----10/12---12/10--10/9---------10-----0------------------------------|
|----8-x16---0-x6-------------------------------8-----0-----14/15---14/12---14/10----|
|----8-------0------8/10---10/8----8/7----------8-----0------------------------------| 
|----8-------0----------------------------------8-----0-----12/13---12/10---12/8-----|
             
|---------------------------------------------------------------------------------------------|
|---------------------------------------------------------------------------------------------|
|---10-------0-----10/12---12/10--10/9--------10------10-------0-----14/15---14/12---14/10----|
|----8-x16---0-x6--------------------------------x8------x8----0------------------------------|
|----8-------0------8/10---10/8----8/7---------8-------7-------0-----12/13---12/10---12/8-----| 
|----8-------0-------------------------------------------------0------------------------------|
BRIDGE
|------------------------------------------------------|
|------------------------------------------------------|
|---8--8-8-8---8--8-8-8---8--8-8-8---8--8-8-8---8-8----|
|---7--7-7-7---7--7-7-7---7--7-7-7---7--7-7-7---7-7----|
|------------------------------------------------------|
|------------------------------------------------------|

|------------------------------------------------------|
|------------------------------------------------------|
|--8--8-8-8---8--8-8-8---8--8-8-8---8--8-8-8---8-8-----|
|--8--8-8-8---8--8-8-8---8--8-8-8---8--8-8-8---8-8-----|
|------------------------------------------------------|
|------------------------------------------------------|

PRE CHORUS

|-----------------------------------------------------------|
|-----------------------------------------------------------|
|---7-5-3--7-5-3--5-3-2---5-3-2----7-5-3--7-5-3---2---------|
|---------------------2-------2-------------------2---------|
|---5-3-1--5-3-1--3-1-0---3-1-0----5-3-1--5-3-1---0---------|
|-----------------------------------------------------------|
 CHORUS
|------------------------------------------------------------------------------------|
|------------------------------------------------------------------------------------|
|---10-------0-----10/12---12/10--10/9---------10-----0------------------------------|
|----8-x16---0-x6-------------------------------8-----0-----14/15---14/12---14/10----|
|----8-------0------8/10---10/8----8/7----------8-----0------------------------------| 
|----8-------0----------------------------------8-----0-----12/13---12/10---12/8-----|
             
|---------------------------------------------------------------------------------------------|
|---------------------------------------------------------------------------------------------|
|---10-------0-----10/12---12/10--10/9--------10------10-------0-----14/15---14/12---14/10----|
|----8-x16---0-x6--------------------------------x8------x8----0------------------------------|
|----8-------0------8/10---10/8----8/7---------8-------7-------0-----12/13---12/10---12/8-----| 
|----8-------0-------------------------------------------------0------------------------------|
            
Submit corrections

comments powered by Disqus
↑ Back to top | 36 Crazyfists Tabs for We Cannot Deny. Lyrics for acoustic guitar and electric guitar. 1 Tablatures and chords are parodies/interpretations of the original songs. You may use it for private study, scholarship, research or language learning purposes only