>
 >
Waterhaul

Waterhaul Guitar Tabs

36 Crazyfists - Waterhaul chords, tabs, tablatures, lyrics

Guitar lessons | Add/correct | Request | Top 50 tabs Artists:  A B C D E F G H I J K L M N O P Q R S T U V W X Y Z 0-9

Waterhaul Guitar Tabs – 36 Crazyfists

CD, Sheet music, Poster

Do you like Waterhaul? Share with your friends now
TabsTabs v2
36 Crazyfists
A Snow Capped Romance
Drop C- CGCFAD
 
-Intro-
Gtr 1- Clean
D|-----------------------------------------------------------------|
A|-----------------------------------------------------------------|
F|-----------------------------------------------------------------|
C|-----------------------------------------------------------------|
G|---5-5---5-5---5---5-5---5-5---5---5-5---5-5---5---5-5---5-5---5-|
C|-0-----0-----0---0-----0-----0---0-----0-----0---0-----0-----0---|

Gtr 1,2- Clean
D|----------------------------------------------------------------------|
A|----------------------------------------------------------------------|
F|----------------------------------------------------------------------|
C|----------------------------------------------------------------------|
G|---8-12---8-12---10---7-10---7-10---8---5-8---5-8---7---3-7---7h8p7-5-|
C|-0------0------0----0------0------0---0-----0-----0---0-----0---------|

Gtr 1
D|---------------------------------|
A|---------------------------------|
F|---------------------------------|
C|---------------------------------|
G|---5-5---5-5---5---5-5---5-5---5-|
C|-0-----0-----0---0-----0-----0---|

Gtr 1
D|----------------------------------------------------------------------|
A|----------------------------------------------------------------------|
F|----------------------------------------------------------------------|
C|----------------------------------------------------------------------|
G|---8-12---8-12---10---7-10---7-10---8---5-8---5-8---7---3-7---7h8p7-5-|
C|-0------0------0----0------0------0---0-----0-----0---0-----0---------|
Gtr 2
D|----------------------------------------------------------------------|
A|----------------------------------------------------------------------|
F|----------------------------------------------------------------------|
C|-7/10-10~-------------------------5/7-7~---------------------7/12-12~-|
G|----------------------------------------------------------------------|
C|----------------------------------------------------------------------|


-Verse-
Gtr 1,2- Distortion
D||------------------------------------------------------------------------------||
A||o----------------------------------------------------------------------------o||
F||------------10-10-10---------9-9-9-9----------10---10-10---------14-14-14-15--||
C||--000-000-0-x--x--x--000-000-x-x-x-x--000-000-x--0-x--x--000-000-x--x--x--x---||
G||o-000-000-0-8--8--8--000-000-7-7-7-7--000-000-8--0-8--8--000-000-12-12-12-13-o||
C||--000-000-0----------000-000----------000-000----0-------000-000--------------||
     pm- --- -          --- ---          --- ---    -       --- ---
“PRESS SKIN! INTO SKIN! JUST A FRACTION TO GATHER THE SENCSES! STILL LOCKING...”
“THE BLOOD LINE! DESIGN! JUST A SCRAPE TO UNCOVER THE EVIDENCE!”

Gtr 1
D|---------------------------------------|
A|---------------------------------------|
F|---------------------------------------|
C|-0-----0-----0-----0-----0-----0-----0-|
G|-0-----0-----0-----0-----0-----0-----0-|
C|-0-----0-----0-----0-----0-----0-----0-|
Gtr 2
D|----------------------------------------|
A|----------------------------------------|
F|-10-10-10-10-10-10-12-9-9-9-9-9-9-5-5-5-|
C|----------------------------------------|
G|----------------------------------------|
C|----------------------------------------|
“YOU! WON’T! REMOVE! ME!, NOT ANYMORE!...”

Gtr 1
D||------------------------------------------------------------------------------||
A||o----------------------------------------------------------------------------o||
F||------------10-10-10---------9-9-9-9----------10---10-10---------14-14-14-15--||
C||--000-000-0-x--x--x--000-000-x-x-x-x--000-000-x--0-x--x--000-000-x--x--x--x---||
G||o-000-000-0-8--8--8--000-000-7-7-7-7--000-000-8--0-8--8--000-000-12-12-12-13-o||
C||--000-000-0----------000-000----------000-000----0-------000-000--------------||
     --- --- -          --- ---          --- ---    -       --- ---
Gtr 2
D||------------------------------------------------------------------------------||
A||o----------------------------------------------------------------------------o||
F||------------------------------------------------------------------------------||
C||--000-000-0-3--3--3--000-000-2-2-2-2--000-000-3-0--3--3--000-000--7--7--7-8---||
G||o-000-000-0-3--3--3--000-000-2-2-2-2--000-000-3-0--3--3--000-000--7--7--7-8--o||
C||--000-000-0-3--3--3--000-000-2-2-2-2--000-000-3-0--3--3--000-000--7--7--7-8---||
     --- --- -          --- ---          --- ---   -        --- ---
“So here we are...Now it’s obvious...Candle lit to divide all your areas”
“And inside...All your barriers...I’m defending my lines to ignite”

Gtr 1
D|------------------------------------------|
A|------------------------------------------|
F|------------------------------------------|
C|--0-----0-----0-----0-----0-----0-----0---|
G|--0-----0-----0-----0-----0-----0-----0---|
C|--0-----0-----0-----0-----0-----0-----0---|
Gtr 2
D|------------------------------------------|
A|------------------------------------------|
F|--10-10-10-10-10-10-12-9-9-9-9-9-9-5-5-5--|
C|------------------------------------------|
G|------------------------------------------|
C|------------------------------------------|
“And I’ll Be This Way Forever...”


Gtr 1- Clean
D|---------------------------------|
A|---------------------------------|
F|---------------------------------|
C|---------------------------------|
G|---5-5---5-5---5---5-5---5-5---5-|
C|-0-----0-----0---0-----0-----0---|

Gtr 1- Clean
D|----------------------------------------------------------------------|
A|----------------------------------------------------------------------|
F|----------------------------------------------------------------------|
C|----------------------------------------------------------------------|
G|---8-12---8-12---10---7-10---7-10---8---5-8---5-8---7---3-7---7h8p7-5-|
C|-0------0------0----0------0------0---0-----0-----0---0-----0---------|
Gtr 2- Clean
D|----------------------------------------------------------------------|
A|----------------------------------------------------------------------|
F|----------------------------------------------------------------------|
C|-7/10-10~-------------------------5/7-7~---------------------7/3-3~---|
G|----------------------------------------------------------------------|
C|----------------------------------------------------------------------|

Gtr 1
D|---------------------------------|
A|---------------------------------|
F|---------------------------------|
C|---------------------------------|
G|---5-5---5-5---5---5-5---5-5---5-|
C|-0-----0-----0---0-----0-----0---|

Gtr 1
D|----------------------------------------------------------------------|
A|----------------------------------------------------------------------|
F|----------------------------------------------------------------------|
C|----------------------------------------------------------------------|
G|---8-12---8-12---10---7-10---7-10---8---5-8---5-8---7---3-7---7h8p7-5-|
C|-0------0------0----0------0------0---0-----0-----0---0-----0---------|
Gtr 2
D|----------------------------------------------------------------------|
A|----------------------------------------------------------------------|
F|----------------------------------------------------------------------|
C|-7/10-10~-------------------------5/7-7~---------------------7/12-12~-|
G|----------------------------------------------------------------------|
C|----------------------------------------------------------------------|


-Verse-
Gtr 1,2- Distortion
D||------------------------------------------------------------------------------||
A||o----------------------------------------------------------------------------o||
F||------------10-10-10---------9-9-9-9----------10---10-10---------14-14-14-15--||
C||--000-000-0-x--x--x--000-000-x-x-x-x--000-000-x--0-x--x--000-000-x--x--x--x---||
G||o-000-000-0-8--8--8--000-000-7-7-7-7--000-000-8--0-8--8--000-000-12-12-12-13-o||
C||--000-000-0----------000-000----------000-000----0-------000-000--------------||
     --- --- -          --- ---          --- ---    -       --- ---
“INSIDE!, THE LOCKS HIDE! SO MY FAITH CAN COME OUTSIDE! AND SHINE!”
“BESIDES! IT’S WHY!, ALL OF THESE MILES OF ROAD WON’T DIVIDE!”

Gtr 1
D|----------------------------------------|
A|----------------------------------------|
F|----------------------------------------|
C|-0-----0-----0-----0-----0-----0-----0--|
G|-0-----0-----0-----0-----0-----0-----0--|
C|-0-----0-----0-----0-----0-----0-----0--|
Gtr 2
D|----------------------------------------|
A|----------------------------------------|
F|-10-10-10-10-10-10-12-9-9-9-9-9-9-5-5-5-|
C|----------------------------------------|
G|----------------------------------------|
C|----------------------------------------|
“YOU! WON’T! REMOVE! ME!, NOT ANYMORE!...”

Gtr 1
D||------------------------------------------------------------------------------||
A||o----------------------------------------------------------------------------o||
F||------------10-10-10---------9-9-9-9----------10---10-10---------14-14-14-15--||
C||--000-000-0-x--x--x--000-000-x-x-x-x--000-000-x--0-x--x--000-000-x--x--x--x---||
G||o-000-000-0-8--8--8--000-000-7-7-7-7--000-000-8--0-8--8--000-000-12-12-12-13-o||
C||--000-000-0----------000-000----------000-000----0-------000-000--------------||
     --- --- -          --- ---          --- ---    -       --- ---
Gtr 2
D||------------------------------------------------------------------------------||
A||o----------------------------------------------------------------------------o||
F||------------------------------------------------------------------------------||
C||--000-000-0-3--3--3--000-000-2-2-2-2--000-000-3-0--3--3--000-000--7--7--7-8---||
G||o-000-000-0-3--3--3--000-000-2-2-2-2--000-000-3-0--3--3--000-000--7--7--7-8--o||
C||--000-000-0-3--3--3--000-000-2-2-2-2--000-000-3-0--3--3--000-000--7--7--7-8---||
     --- --- -          --- ---          --- ---   -        --- ---
“And now its where...The secrets pushed behind...With the lanterns to burn this inside”
“And up there, A SNOW-CAPPED Romance where...Everything we build will come from our eyes”

Gtr 1
D|----------------------------------------|
A|----------------------------------------|
F|----------------------------------------|
C|-0-----0-----0-----0-----0-----0-----0--|
G|-0-----0-----0-----0-----0-----0-----0--|
C|-0-----0-----0-----0-----0-----0-----0--|
Gtr 2
D|----------------------------------------|
A|----------------------------------------|
F|-10-10-10-10-10-10-12-9-9-9-9-9-9-5-5-5-|
C|----------------------------------------|
G|----------------------------------------|
C|----------------------------------------|
“And I’ll Be This Way Forever...”


-Outro-
Gtr 1- Clean
D|---------------------------------|
A|---------------------------------|
F|---------------------------------|
C|---------------------------------|
G|---5-5---5-5---5---5-5---5-5---5-|
C|-0-----0-----0---0-----0-----0---|

Gtr 1- Clean
D|----------------------------------------------------------------------|
A|----------------------------------------------------------------------|
F|----------------------------------------------------------------------|
C|----------------------------------------------------------------------|
G|---8-12---8-12---10---7-10---7-10---8---5-8---5-8---7---3-7---7h8p7-5-|
C|-0------0------0----0------0------0---0-----0-----0---0-----0---------|
Gtr 2- Clean
D|----------------------------------------------------------------------|
A|----------------------------------------------------------------------|
F|----------------------------------------------------------------------|
C|-7/10-10~-------------------------5/7-7~---------------------7/3-3~---|
G|----------------------------------------------------------------------|
C|----------------------------------------------------------------------|

Gtr 1
D|---------------------------------|
A|---------------------------------|
F|---------------------------------|
C|---------------------------------|
G|---5-5---5-5---5---5-5---5-5---5-|
C|-0-----0-----0---0-----0-----0---|

Gtr 1
D|----------------------------------------------------------------------|
A|----------------------------------------------------------------------|
F|----------------------------------------------------------------------|
C|----------------------------------------------------------------------|
G|---8-12---8-12---10---7-10---7-10---8---5-8---5-8---7---3-7---7h8p7-5-|
C|-0------0------0----0------0------0---0-----0-----0---0-----0---------|
Gtr 2
D|----------------------------------------------------------------------|
A|----------------------------------------------------------------------|
F|----------------------------------------------------------------------|
C|-7/10-10~-------------------------5/7-7~---------------------7/12-12~-|
G|----------------------------------------------------------------------|
C|----------------------------------------------------------------------|





Comments


Popular 36 Crazyfists tabs & chords
At The End Of August Bass Tabs
At The End Of August Tabs
Bloodwork 3 Tabs
Destroy The Map 1 Tabs
Eightminutesupsidedown Tabs
One More Word Tabs
Reviver Tabs
Skin And Atmosphere 1 Tabs
The Tide And Its Takers 1 Tabs
Two Months From A Year Tabs


Song lyrics



↑ Back to top | Tablatures and chords are parodies/interpretations of the original songs. You may use it for private study, scholarship, research or language learning purposes only
© 2014 AZChords.com Contact us | Privacy policy | DMCA | Add/correct tabs | Request tabs | Top 50 tabs