>
 >
Turns To Ashes 1

Turns To Ashes 1 Guitar Tabs

36 Crazyfists - Turns To Ashes 1 chords, tabs, tablatures, lyrics

Guitar lessons | Add/correct | Request | Top 50 tabs Artists:  A B C D E F G H I J K L M N O P Q R S T U V W X Y Z 0-9

Turns To Ashes 1 Guitar Tabs – 36 Crazyfists

CD, Sheet music, Poster

Do you like Turns To Ashes 1? Share with your friends now
Bass TabsTabsTabs v2Tabs v3
Turns To Ashes
36 Crazyfists
Bitterness The Stars

-Intro-
Gtr 1- Light Distortion
D|---------------------------------------------------------------|
A|---------------------------------------------------------------|
F|---------------------------------------------------------------|
C|-----------------------------------------------------------1-1-|
G|-------------3---------------3---------------3-------------1-1-|
C|-0-1-3-1-0-1---1-0-1-3-1-0-1---1-0-1-3-1-0-1---1-0-1-3-1-0-1-1-|

Gtr 1,2- Distortion
D||------------------------------------------------------------------||
A||o-------------3---------------3---------------3------------------o||
F||--------------3---------------3---------------3-------------------||
C||--------------3---------------3---------------3-------------------||
G||o-0-1-3-1-0-1---1-0-1-3-1-0-1---1-0-1-3-1-0-1---1-0-1-3-1-0-1--1-o||
C||--0-1-3-1-0-1---1-0-1-3-1-0-1---1-0-1-3-1-0-1---1-0-1-3-1-0-1--1--||

-Verse- x4
Gtr 1- Light Distortion
D||-------------------------------------------------------|
A||o------------------------------------------------------|
F||-8-8-8-8-8-8-8-8-8-8-8-8-8-8-8-7-7-7-7-7-7-7-7-7-7-7-7-|
C||-------------------------------------------------------|
G||o------------------------------------------------------|
C||-------------------------------------------------------|

D|-------------------------------------------------||
A|------------------------------------------------o||
F|-8-8-8-8-8-8-7-7-7-7-7-7-3-3-3-3-3-3-3-3-3-3-3-3-||
C|-------------------------------------------------||
G|------------------------------------------------o||
C|-------------------------------------------------||

-Pre-Chorus-
D||---------------------------------------------------------------||
A||o-------------------------------------------------------------o||
F||---------------------------------------------------------------||
C||---------------------------------------------------------------||
G||o--------------3-1-0-1--x-7--8----------------3-1-0-1--x-1--3-o||
C||-0-0-0--0-0-0--3-1-0-1--x-7--8--0-0-0--0-0-0--3-1-0-1--x-1--3--||
    - - -  - - -                   - - -  - - -

-Chorus-
Gtr 1- Distortion
D|-----------------------------------------------------|
A|-----------------------------------------------------|
F|-----------------------------------------------------|
C|-0------7------3------8-------0------7------3------8-|
G|-0------7------3------8-------0------7------3------8-|
C|-0------7------3------8-------0------7------3------8-|
Gtr 2- Distortion
D|----------------------------------------------------------|
A|----------------------------------------------------------|
F|-7------9------10-----14------7------9------10----7-----5-|
C|-x------x------x------x-------x------x------x-----x-----x-|
G|-5------7------8------12------5------7------8-----5-----3-|
C|----------------------------------------------------------|

Gtr 1,2
D|----------------------------------------------------------------|
A|-------------3---------------3---------------3------------------|
F|-------------3---------------3---------------3------------------|
C|-------------3---------------3---------------3------------------|
G|-0-1-3-1-0-1---1-0-1-3-1-0-1---1-0-1-3-1-0-1---1-0-1-3-1-0-1--1-|
C|-0-1-3-1-0-1---1-0-1-3-1-0-1---1-0-1-3-1-0-1---1-0-1-3-1-0-1--1-|


-Verse- x4
Gtr 1- Light Distortion
D||-------------------------------------------------------|
A||o------------------------------------------------------|
F||-8-8-8-8-8-8-8-8-8-8-8-8-8-8-8-7-7-7-7-7-7-7-7-7-7-7-7-|
C||-------------------------------------------------------|
G||o------------------------------------------------------|
C||-------------------------------------------------------|

D|-------------------------------------------------||
A|------------------------------------------------o||
F|-8-8-8-8-8-8-7-7-7-7-7-7-3-3-3-3-3-3-3-3-3-3-3-3-||
C|-------------------------------------------------||
G|------------------------------------------------o||
C|-------------------------------------------------||

-Pre-Chorus-
D||---------------------------------------------------------------||
A||o-------------------------------------------------------------o||
F||---------------------------------------------------------------||
C||---------------------------------------------------------------||
G||o--------------3-1-0-1--x-7--8----------------3-1-0-1--x-1--3-o||
C||-0-0-0--0-0-0--3-1-0-1--x-7--8--0-0-0--0-0-0--3-1-0-1--x-1--3--||
    - - -  - - -                   - - -  - - -

-Chorus-
Gtr 1- Distortion
D|-----------------------------------------------------|
A|-----------------------------------------------------|
F|-----------------------------------------------------|
C|-0------7------3------8-------0------7------3------8-|
G|-0------7------3------8-------0------7------3------8-|
C|-0------7------3------8-------0------7------3------8-|

D|------------------------|
A|------------------------|
F|------------------------|
C|-0------7------3------8-|
G|-0------7------3------8-|
C|-0------7------3------8-|
Gtr 2- Distortion
D|----------------------------------------------------------|
A|----------------------------------------------------------|
F|-7------9------10-----14------7------9------10----7-----5-|
C|-x------x------x------x-------x------x------x-----x-----x-|
G|-5------7------8------12------5------7------8-----5-----3-|
C|----------------------------------------------------------|

D|-----------------------------|
A|-----------------------------|
F|-7------9------10----7-----5-|
C|-x------x------x-----x-----x-|
G|-5------7------8-----5-----3-|
C|-----------------------------|

-Solo-
Gtr 1
D|-----------------------------------------------------------------|
A|-------------3---------------3---------------3---------------3---|
F|-------------3---------------3---------------3---------------3---|
C|-------------3---------------3---------------3---------------3---|
G|-0-1-3-1-0-1---1-0-1-3-1-0-1---1-0-1-3-1-0-1---1-0-1-3-1-0-1---1-|
C|-0-1-3-1-0-1---1-0-1-3-1-0-1---1-0-1-3-1-0-1---1-0-1-3-1-0-1---1-|

D|-------------------------------------------------------------|
A|-------------3---------------3---------------3---------------|
F|-------------3---------------3---------------3---------------|
C|-------------3---------------3---------------3---------------|
G|-0-1-3-1-0-1---1-0-1-3-1-0-1---1-0-1-3-1-0-1---1-0-1-3-1-0-0-|
C|-0-1-3-1-0-1---1-0-1-3-1-0-1---1-0-1-3-1-0-1---1-0-1-3-1-0-0-|
Gtr 2
D||---------------------------------------------||
A||o-15-15-15-15-15-15-15-15-15-18-18-16-16-13-o||
F||---------------------------------------------||
C||---------------------------------------------||
G||o-------------------------------------------o||x3
C||---------------------------------------------||

D|-------------------------------------15-15-15-17-17-17-17-17-17-17-17-17-|
A|-15-15-15-15-15-15-15-15-15-18-18-18-------------------------------------|
F|-------------------------------------------------------------------------|
C|-------------------------------------------------------------------------|
G|-------------------------------------------------------------------------|
C|-------------------------------------------------------------------------|

-Chorus-
Gtr 1- Distortion
D||-------------------------------------------------------||
A||o-----------------------------------------------------o||
F||-------------------------------------------------------||
C||--0------7------3------8-------0------7------3------8--||
G||o-0------7------3------8-------0------7------3------8-o||
C||--0------7------3------8-------0------7------3------8--||
Gtr 2- Distortion
D||------------------------------------------------------------||
A||o----------------------------------------------------------o||
F||--7------9------10-----14------7------9------10----7-----5--||
C||--x------x------x------x-------x------x------x-----x-----x--||
G||o-5------7------8------12------5------7------8-----5-----3-o||
C||------------------------------------------------------------||

-Interlude-
Gtr 1- Light Distortion
D|---------------------------------------------------------------|
A|---------------------------------------------------------------|
F|---------------------------------------------------------------|
C|-----------------------------------------------------------1-1-|
G|-------------3---------------3---------------3-------------1-1-|
C|-0-1-3-1-0-1---1-0-1-3-1-0-1---1-0-1-3-1-0-1---1-0-1-3-1-0-1-1-|
Gtr 2- Light Distortion
D|---------------------------------------------------------------|
A|---------------------------------------------------------------|
F|---------------------------------------------------------------|
C|-----------------------------------------------------------1-1-|
G|-------------3---------------3---------------3-------------1-1-|
C|-0-1-3-1-0-1---1-0-1-3-1-0-1---1-0-1-3-1-0-1---1-0-1-3-1-0-1-1-|
   - - - - - -   - - - - - - -   - - - - - - -   - - - - - -

-Outro- x4
D||-------------------------------------------------------------------||
A||o-------------3---------------3---------------3---------------3---o||
F||--------------3---------------3---------------3---------------3----||
C||--------------3---------------3---------------3---------------3----||
G||o-0-1-3-1-0-1---1-0-1-3-1-0-1---1-0-1-3-1-0-1---1-0-1-3-1-0-1---1-o||
C||--0-1-3-1-0-1---1-0-1-3-1-0-1---1-0-1-3-1-0-1---1-0-1-3-1-0-1---1--||

D|-------------------------------------------------|
A|-------------3---------------3-------------------|
F|-------------3---------------3-------------------|
C|-------------3---------------3-----------0~~~~~~-|
G|-0-1-3-1-0-1---1-0-1-3-1-0-1---1-0-1-3-1-0~~~~~~-|
C|-0-1-3-1-0-1---1-0-1-3-1-0-1---1-0-1-3-1-0~~~~~~-|





Comments


Popular 36 Crazyfists tabs & chords
Chalk White Bass Tabs
Destroy The Map Bass Tabs
Dislocate Bass Tabs
Song For The Fisherman Bass Tabs
Bloodwork 1 Tabs
Only A Year Or So Tabs
Slit Wrist Theory 3 Tabs
We Gave It Hell Tabs
We Gave It Hell 1 Tabs
With Nothing Underneath Tabs


Song lyrics



↑ Back to top | Tablatures and chords are parodies/interpretations of the original songs. You may use it for private study, scholarship, research or language learning purposes only
© 2014 AZChords.com Contact us | Privacy policy | DMCA | Add/correct tabs | Request tabs | Top 50 tabs