» » »

Ill Go Until My Heart Stops Tabs (ver.1)

Artists:  A B C D E F G H I J K L M N O P Q R S T U V W X Y Z # 

Ill Go Until My Heart Stops Tabs (ver.1)

36 Crazyfists
Rating:
0/5 (0 votes)

Tabs too difficult? Try these video lessons and learn fast.
                ----------------------------------------------------------------------------
                      ¡°I¡¯ll Go Until My Heart Stops¡±
                              36 Crazyfists
----------------------------------------------------------------------------
This is the first track to come off the new album, as far as I know no one
else has tabbed it yet. There are some subtleties in the chorus and verse
which are tricky to make out but I¡¯m sure this is right! By the way this is
the full album version, the single/video version is edited.

Drop C Tuning, C G C F A D
x ¨C palm mute
* - pinched harmonic
/ - slide up
\ - slide down
. (under tab) - palm mute
. (in tab) - don¡¯t let the chord ring/sustain
¡Ö - let the chord ring/sustain
> - tremolo arm down

Intro
|--------------------------------------------------------------------------|
|--------------------------------------------------------------------------|
|--------------------------------------------------------------11*---------|
|--4-4-4-------4-4-4-------4-4-----6-6-6-------6-6-6-------6-6-------------|
|--4-4-4-5-5-5-4-4-4-5-5-5-4-4-5-4-6-6-6-7-7-7-6-6-6-7-7-7-6-6-------------|
|--4-4-4-------4-4-4-------4-4-----6-6-6-------6-6-6-------6-6-------------|

|--------------------------------------------------------------------------|
|--------------------------------------------------------------------------|
|--------------------------------------------------------------------------|
|--4-4-4-------4-4-4-------4-4-----6-6-6-------6-6-6-------9¡ª-7------------|
|--4-4-4-5-5-5-4-4-4-5-5-5-4-4-5-4-6-6-6-7-7-7-6-6-6-7-7-7-9--7------------|
|--4-4-4-------4-4-4-------4-4-----6-6-6-------6-6-6-------9--7------------|

Verse part i
(Just keep strumming these octaves. I think they use a phaser & a kind of
rotary effect that makes it sound swishy)
|--------------------------------------------------|
|--------------------------------------------------|
|--11-11-11-11-11-11-11-11-11-11-11-11-11-11-11-11-|
|--x¡ª-x--x--x--x--x--x--x--x--x--x--x--x--x--x--x--|
|--9--9--9--9--9--9--9--9--9--9--9--9--9--9--9--9--|
|--------------------------------------------------| x2

|--------------------------------------------------|
|--------7--7--7--7--7--7--7--7--7--7--7--7--7--7--|
|--9--9--9--9--9--9--9--9--9--9--9--9--9--9--9¡ª-9--|
|--x¡ª-x--x--x--x--x--x--x--x--x--x--x--x--x--x--x--|
|--7--7--7--7--7--7--7--7--7--7--7¡ª-7¡ª-7¡ª-7-¡ª7¡ª-7--|
|--------------------------------------------------|

|--------------------------------------------------|
|--7--7--7--7--7--7--7--7--7--7--7--7--------------|
|--9--9--9--9--9--9--9--9--9--9--9--9--------------|
|--x¡ª-x--x--x--x--x--x--x--x--x--x--x¡ª-6/7-7.------|
|--7--7--7--7--7--7--7--7--7--7--7¡ª-7¡ª-6/7-7.------|
|--------------------------------------6/7-7.------|

Verse part ii
|-----------------------------------------------------------|
|-----------------------------------------------------------|
|--11-11-11-11-11-11-11-11-11-11-11-11-11-11-11\9--9-9-9/13-|
|--x¡ª-x--x--x--x--x--x--x--x--x--x--x--x--x--x-\x--x-x-x/x--|
|--9--9--9--9--9--9--9¡ª-9--9--9--9--9--9--9¡ª-9-\7--7-7-7/11-|
|-----------------------------------------------------------|

|-----------------------------------------------------------|
|-----------------------------------------------------------|
|--11-11-11-11-11-11-11-11-11-11-11-11-11\9--9-9-9/11-------|
|--x¡ª-x--x--x--x--x--x--x--x--x--x--x--x-\x--x-x-x/x--------|
|--13-13-13-13-13-13-13-13-13-13-13-13-13\7--7-7-7/9--------|
|-----------------------------------------------------------|


|-----------------------------------------------------------|
|-----------------------------------------------------------|
|--11-11-11-11-11-11-11-11-11-11-11-11-11-11\9--9-9-9/13----|
|--x--x--x--x--x--x--x--x--x--x--x--x--x--x-\x--x-x-x-x-----|
|--9--9--9--9--9--9--9--9--9--9--9--9--9--9-\7--7-7-7/11----|
|-----------------------------------------------------------|

|-----------------------------------------------------------|
|-----------------------------------------------------------|
|--13-13-13-13-13-13-13-13-13/16-16-16-16-16-16-------------|
|--x¡ª-x--x--x--x--x--x--x--x-/x--x--x--x--x--x--------------|
|--11-11-11-11-11-11-11-11-11/14-14-14-14-14-14-------------|
|-----------------------------------------------------------|

verse part iii
|-------------------------------------------|
|-------------------------------------------|
|-------------------------------------------|
|--11-11-11-7-7-7-11-11-11-7-7-7-11-11-7-7--|
|--11-11-11-7-7-7-11-11-11-7-7-7-11-11-7-7--|
|--11-11-11-7-7-7-11-11-11-7-7-7-11-11-7-7--|

|-------------------------------------------|
|-------------------------------------------|
|-------------------------------------------|
|--11-11-11-7-7-7-11-11-11-7-7-7-11.--------|
|--11-11-11-7-7-7-11-11-11-7-7-7-11.--------|
|--11-11-11-7-7-7-11-11-11-7-7-7-11.--------|

Pre Chorus
(Same as intro mostly)
|--------------------------------------------------------------------------|
|--------------------------------------------------------------------------|
|--------------------------------------------------------------11*---------|
|--4-4-4-------4-4-4-------4-4-----6-6-6-------6-6-6-------6-6-------------|
|--4-4-4-5-5-5-4-4-4-5-5-5-4-4-5-4-6-6-6-7-7-7-6-6-6-7-7-7-6-6-------------|
|--4-4-4-------4-4-4-------4-4-----6-6-6-------6-6-6-------6-6-------------|

|--------------------------------------------------------------------------|
|--------------------------------------------------------------------------|
|--------------------------------------------------------------------------|
|--4-4-4-------4-4-4-------4-4-----6--6--6-6/7--7--7-7/9-9-----------------|
|--4-4-4-5-5-5-4-4-4-5-5-5-4-4-5-4-6--6--6-6/7--7--7-7/9-9-----------------|
|--4-4-4-------4-4-4-------4-4-----6--6--6-6/7--7--7-7/9-9-----------------|

Chorus
|-------------------------------------------------|
|-------------------------------------------------|
|-------------------------------------------------|
|--11-11-11--11-11-11-11-14-14-14-12-12-12-11-11--|
|--11-11-11--11-11-11-11-11-11-11-11-11-11-11-11--|
|--11-11-11--11-11-11-11-11-11-11-11-11-11-11-11--|

|-------------------------------------------------|
|-------------------------------------------------|
|-------------------------------------------------|
|--11-11-11--11-11-11-11-14-14-14-12-12-12-11.----|
|--11-11-11--11-11-11-11-11-11-11-11-11-11-11.----|
|--11-11-11--11-11-11-11-11-11-11-11-11-11-11.----|

|-------------------------------------------------|
|-------------------------------------------------|
|-------------------------------------------------|
|--9-9-9--9-9-9-9-9-9-9-7-7-7---------------------|
|--7-7-7--7-7-7-7-7-7-7-7-7-7-11-11---------------|
|--7¡ª7-7--7-7-7-7-7-7-7-7-7-7-7--7¡ª---------------| x2

|-------------------------------------------------|
|-------------------------------------------------|
|-------------------------------------------------|
|--11-11-11.--11-11-11.--12-12-12-12-11.-11-------|
|--11-11-11.--11-11-11.--11-11-11-11-11.-11-------|
|--11-11-11.--11-11-11.--11-11-11-11-11.-11-------|

|-------------------------------------------------|
|-------------------------------------------------|
|-------------------------------------------------|
|--11-11-11.--11-11-11.--12-12-12-12-9------------|
|--11-11-11.--11-11-11.--11-11-11-11-9------------|
|--11-11-11.--11-11-11.--11-11-11-11-9------------|

|-------------------------------------------------|
|-------------------------------------------------|
|-------------------------------------------------|
|--9-9-9--9-9-9-9-9-9-9-7-7-7---------------------|
|--7-7-7--7-7-7-7-7-7-7-7-7-7-11-11---------------|
|--7¡ª7-7--7-7-7-7-7-7-7-7-7-7-7--7¡ª---------------| x2

Pause before 2nd verse
(Same effect as verse)
|--------------------------------------------------|
|--------------------------------------------------|
|--11-11-11-11-11-11-11-11-11-11-11-11-11-11-11-11-|
|--x¡ª-x--x--x--x--x--x--x--x--x--x--x--x--x--x--x--|
|--9--9--9--9--9--9--9--9--9--9--9--9--9--9--9--9--|
|--------------------------------------------------|

Verse part i

Verse part ii

Verse part iii

Pre Chorus
|--------------------------------------------------------------------------|
|--------------------------------------------------------------------------|
|--------------------------------------------------------------11*---------|
|--4-4-4-------4-4-4-------4-4-----6-6-6-------6-6-6-------6-6-------------|
|--4-4-4-5-5-5-4-4-4-5-5-5-4-4-5-4-6-6-6-7-7-7-6-6-6-7-7-7-6-6-------------|
|--4-4-4-------4-4-4-------4-4-----6-6-6-------6-6-6-------6-6-------------|

|--------------------------------------------------------------------------|
|--------------------------------------------------------------------------|
|--------------------------------------------------------------------------|
|--4-4-4.------4-4-4.------4-4-----6--6--6-6/7--7--7-7/9-9-----------------|
|--4-4-4.------4-4-4.------4-4-----6--6--6-6/7--7--7-7/9-9-----------------|
|--4-4-4.------4-4-4.------4-4-----6--6--6-6/7--7--7-7/9-9-----------------|

Chorus

Bridge
|---------------------------------------------|
|---------------------------------------------|
|---------------------------------------------|
|--0----0----0----0.--------------------------|
|--0----0----0----0.--------------------------|
|--0----0----0----0.--------------------------|

|------------------------------------------------------------------|-------|
|------------------------------------------------------------------|-------|
|------------------------------------------------------------------|-------|
|--0-0-0-0-¡ª-0-0-0-0--¡ª0-0-0-0-¡ª-0-0-0-0---------------------------|--11.--|
|--0-0-0-0-¡ª-0-0-0-0--¡ª0-0-0-0--¡ª0-0-0-0---------------------------|--11.--|
|--0-0-0-0-¡ª-0-0-0-0-¡ª-0-0-0-0-¡ª-0-0-0-0---------------------------|--11.--|
   . . . .   . . . .   . . . .   . . . .                                   end on this
palm mute, repeat all through ¡°this is as real as it gets¡­¡±

|--------------------------------------------------------------------------|
|--------------------------------------------------------------------------|
|-------------------------------------13\----------------------------------|
|--11\--0-0-0-0¡ª--0-0-0-0---0-0-0-0---x-\--0-0-0-0---0-0-0-0---0-0-0-0-----|
|--11\--0-0-0-0¡ª--0-0-0-0---0-0-0-0-¡ª-11\--0-0-0-0---0-0-0-0---0-0-0-0-----|
|--11\--0-0-0-0---0-0-0-0---0-0-0-0--------0-0-0-0---0-0-0-0--¡ª0-0-0-0-----|
        . . . .   . . . .   . . . .        . . . .   . . . .   . . . .
|--------------------------------------------------------------------------|
|--------------------------------------------------------------------------|
|-------------------------------------13\----------------------------------|
|--11\--0-0-0-0¡ª--0-0-0-0---0-0-0-0---x-\--0-0-0-0---0-0-0-7---0-0-0-9-----|
|--11\--0-0-0-0¡ª--0-0-0-0---0-0-0-0-¡ª-11\--0-0-0-0---0-0-0-7---0-0-0-9-----|
|--11\--0-0-0-0---0-0-0-0---0-0-0-0--------0-0-0-0---0-0-0-7--¡ª0-0-0-9-----|
        . . . .   . . . .   . . . .        . . . .   . . .     . . .
Chorus (clean)
|-------------------------------------------------|
|-------------------------------------------------|
|-------------------------------------------------|
|--11-11-11--11-11-11-11-14-14-14-12-12-12-11-11--|
|--11-11-11--11-11-11-11-11-11-11-11-11-11-11-11--|
|--11-11-11--11-11-11-11-11-11-11-11-11-11-11-11--|

|-------------------------------------------------|
|-------------------------------------------------|
|-------------------------------------------------|
|--11-11-11--11-11-11-11-14-14-14-14-14-11--------|
|--11-11-11--11-11-11-11-11-11-11-11-11-11--------|
|--11-11-11--11-11-11-11-11-11-11-11-11-11--------|

Distortion kicks in
|-------------------------------------------------|
|-------------------------------------------------|
|-------------------------------------------------|
|--9-9-9--9-9-9-9-9-9-9-7-7-7---------------------|
|--7-7-7--7-7-7-7-7-7-7-7-7-7-11-11---------------|
|--7¡ª7-7--7-7-7-7-7-7-7-7-7-7-7--7¡ª---------------| x2

|-------------------------------------------------|
|-------------------------------------------------|
|-------------------------------------------------|
|--11-11-11.--11-11-11.--12-12-12-12-11.-11-------|
|--11-11-11.--11-11-11.--11-11-11-11-11.-11-------|
|--11-11-11.--11-11-11.--11-11-11-11-11.-11-------|

|-------------------------------------------------|
|-------------------------------------------------|
|-------------------------------------------------|
|--11-11-11.--11-11-11.--12-12-12-12-9------------|
|--11-11-11.--11-11-11.--11-11-11-11-9------------|
|--11-11-11.--11-11-11.--11-11-11-11-9------------|

|-------------------------------------------------|
|-------------------------------------------------|
|-------------------------------------------------|
|--9-9-9--9-9-9-9-9-9-9-7-7-7---------------------|
|--7-7-7--7-7-7-7-7-7-7-7-7-7-11-11---------------|
|--7¡ª7-7--7-7-7-7-7-7-7-7-7-7-7--7¡ª---------------| x2


Then into....
|-------------------------------------------------|
|-------------------------------------------------|
|--11-11-11--11-11-11-11--------------------------|
|--11-11-11--11-11-11-11--------------------------|
|--11-11-11--11-11-11-11-14-14-14-12-12-12-11-11--| x2

|-------------------------------------------------|
|-------------------------------------------------|
|-------------------------------------------------|
|--7--7--7--7-7-7-7-7--4--4--4--4-2-2-2-2-2-------|
|--7--7--7--7-7-7-7-7--4--4--4--4-2-2-2-2-2-------|
|--7--7--7--7-7-7-7-7--4--4--4¡ª-4-2-2-2-2-2-------|

|-------------------------------------------------|
|-------------------------------------------------|
|--11-11-11--11-11-11-11--------------------------|
|--11-11-11--11-11-11-11--------------------------|
|--11-11-11--11-11-11-11-14-14-14-12-12-12-11-11--| x2

|-------------------------------------------------|
|-------------------------------------------------|
|-------------------------------------------------|
|--7--7--9--9-9-9-9-9--4--4--6--6-2-2-2-2-2-------|
|--7--7--7--7-7-7-7-7--4--4--4--4-2-2-2-2-2-------|
|--7--7--7--7-7-7-7-7--4--4--4¡ª-4-2-2-2-2-2-------|

|-------------------------------------------------|
|-------------------------------------------------|
|--11---------------------------------------------|
|--11¡ª-keep strumming with slow phaser effect-----|
|--11¡ª-drop the pitch at the end------------------|
(use a pitch shifter or just slide to open)

Outro
|------------------------------------------------------------------------|
|------------------------------------------------------------------------|
|------------------------------------------------------------------------|
|--11-11-11--11-11-11-11-14-14-14-12-12-12-11-11--------2--0--------2--0-|
|--11-11-11--11-11-11-11-11-11-11-11-11-11-11-11--------2--0--------2--0-|
|--11-11-11--11-11-11-11-11-11-11-11-11-11-11-11--4>----2--0--4>----2--0-|x2

Finish on
|-------------------|
|-------------------|
|-------------------|
|----14¡Ö------|
|----11¡Ö------|
|----11¡Ö------|
            
Tabs too difficult? Try these video lessons and learn fast.




comments powered by Disqus
↑ Back to top | Tablatures and chords are parodies/interpretations of the original songs. You may use it for private study, scholarship, research or language learning purposes only