>
 >
Ill Go Until My Heart Stops

Ill Go Until My Heart Stops Guitar Tabs

36 Crazyfists - Ill Go Until My Heart Stops chords, tabs, tablatures, lyrics

Guitar lessons | Add/correct | Request | Top 50 tabs Artists:  A B C D E F G H I J K L M N O P Q R S T U V W X Y Z 0-9

Ill Go Until My Heart Stops Guitar Tabs – 36 Crazyfists

CD, Sheet music, Poster

Do you like Ill Go Until My Heart Stops? Share with your friends now
TabsTabs v2Tabs v3
----------------------------------------------------------------------------
                      Ill Go Until My Heart Stops
                              36 Crazyfists
----------------------------------------------------------------------------
This is the first track to come off the new album, as far as I know no one
else has tabbed it yet. There are some subtleties in the chorus and verse
which are tricky to make out but Im sure this is right! By the way this is
the full album version, the single/video version is edited.

Drop C Tuning, C G C F A D
x C palm mute
* - pinched harmonic
/ - slide up
\ - slide down
. (under tab) - palm mute
. (in tab) - dont let the chord ring/sustain
 - let the chord ring/sustain
> - tremolo arm down

Intro
|--------------------------------------------------------------------------|
|--------------------------------------------------------------------------|
|--------------------------------------------------------------11*---------|
|--4-4-4-------4-4-4-------4-4-----6-6-6-------6-6-6-------6-6-------------|
|--4-4-4-5-5-5-4-4-4-5-5-5-4-4-5-4-6-6-6-7-7-7-6-6-6-7-7-7-6-6-------------|
|--4-4-4-------4-4-4-------4-4-----6-6-6-------6-6-6-------6-6-------------|

|--------------------------------------------------------------------------|
|--------------------------------------------------------------------------|
|--------------------------------------------------------------------------|
|--4-4-4-------4-4-4-------4-4-----6-6-6-------6-6-6-------9-7------------|
|--4-4-4-5-5-5-4-4-4-5-5-5-4-4-5-4-6-6-6-7-7-7-6-6-6-7-7-7-9--7------------|
|--4-4-4-------4-4-4-------4-4-----6-6-6-------6-6-6-------9--7------------|

Verse part i
(Just keep strumming these octaves. I think they use a phaser & a kind of
rotary effect that makes it sound swishy)
|--------------------------------------------------|
|--------------------------------------------------|
|--11-11-11-11-11-11-11-11-11-11-11-11-11-11-11-11-|
|--x-x--x--x--x--x--x--x--x--x--x--x--x--x--x--x--|
|--9--9--9--9--9--9--9--9--9--9--9--9--9--9--9--9--|
|--------------------------------------------------| x2

|--------------------------------------------------|
|--------7--7--7--7--7--7--7--7--7--7--7--7--7--7--|
|--9--9--9--9--9--9--9--9--9--9--9--9--9--9--9-9--|
|--x-x--x--x--x--x--x--x--x--x--x--x--x--x--x--x--|
|--7--7--7--7--7--7--7--7--7--7--7-7-7-7-7-7--|
|--------------------------------------------------|

|--------------------------------------------------|
|--7--7--7--7--7--7--7--7--7--7--7--7--------------|
|--9--9--9--9--9--9--9--9--9--9--9--9--------------|
|--x-x--x--x--x--x--x--x--x--x--x--x-6/7-7.------|
|--7--7--7--7--7--7--7--7--7--7--7-7-6/7-7.------|
|--------------------------------------6/7-7.------|

Verse part ii
|-----------------------------------------------------------|
|-----------------------------------------------------------|
|--11-11-11-11-11-11-11-11-11-11-11-11-11-11-11\9--9-9-9/13-|
|--x-x--x--x--x--x--x--x--x--x--x--x--x--x--x-\x--x-x-x/x--|
|--9--9--9--9--9--9--9-9--9--9--9--9--9--9-9-\7--7-7-7/11-|
|-----------------------------------------------------------|

|-----------------------------------------------------------|
|-----------------------------------------------------------|
|--11-11-11-11-11-11-11-11-11-11-11-11-11\9--9-9-9/11-------|
|--x-x--x--x--x--x--x--x--x--x--x--x--x-\x--x-x-x/x--------|
|--13-13-13-13-13-13-13-13-13-13-13-13-13\7--7-7-7/9--------|
|-----------------------------------------------------------|


|-----------------------------------------------------------|
|-----------------------------------------------------------|
|--11-11-11-11-11-11-11-11-11-11-11-11-11-11\9--9-9-9/13----|
|--x--x--x--x--x--x--x--x--x--x--x--x--x--x-\x--x-x-x-x-----|
|--9--9--9--9--9--9--9--9--9--9--9--9--9--9-\7--7-7-7/11----|
|-----------------------------------------------------------|

|-----------------------------------------------------------|
|-----------------------------------------------------------|
|--13-13-13-13-13-13-13-13-13/16-16-16-16-16-16-------------|
|--x-x--x--x--x--x--x--x--x-/x--x--x--x--x--x--------------|
|--11-11-11-11-11-11-11-11-11/14-14-14-14-14-14-------------|
|-----------------------------------------------------------|

verse part iii
|-------------------------------------------|
|-------------------------------------------|
|-------------------------------------------|
|--11-11-11-7-7-7-11-11-11-7-7-7-11-11-7-7--|
|--11-11-11-7-7-7-11-11-11-7-7-7-11-11-7-7--|
|--11-11-11-7-7-7-11-11-11-7-7-7-11-11-7-7--|

|-------------------------------------------|
|-------------------------------------------|
|-------------------------------------------|
|--11-11-11-7-7-7-11-11-11-7-7-7-11.--------|
|--11-11-11-7-7-7-11-11-11-7-7-7-11.--------|
|--11-11-11-7-7-7-11-11-11-7-7-7-11.--------|

Pre Chorus
(Same as intro mostly)
|--------------------------------------------------------------------------|
|--------------------------------------------------------------------------|
|--------------------------------------------------------------11*---------|
|--4-4-4-------4-4-4-------4-4-----6-6-6-------6-6-6-------6-6-------------|
|--4-4-4-5-5-5-4-4-4-5-5-5-4-4-5-4-6-6-6-7-7-7-6-6-6-7-7-7-6-6-------------|
|--4-4-4-------4-4-4-------4-4-----6-6-6-------6-6-6-------6-6-------------|

|--------------------------------------------------------------------------|
|--------------------------------------------------------------------------|
|--------------------------------------------------------------------------|
|--4-4-4-------4-4-4-------4-4-----6--6--6-6/7--7--7-7/9-9-----------------|
|--4-4-4-5-5-5-4-4-4-5-5-5-4-4-5-4-6--6--6-6/7--7--7-7/9-9-----------------|
|--4-4-4-------4-4-4-------4-4-----6--6--6-6/7--7--7-7/9-9-----------------|

Chorus
|-------------------------------------------------|
|-------------------------------------------------|
|-------------------------------------------------|
|--11-11-11--11-11-11-11-14-14-14-12-12-12-11-11--|
|--11-11-11--11-11-11-11-11-11-11-11-11-11-11-11--|
|--11-11-11--11-11-11-11-11-11-11-11-11-11-11-11--|

|-------------------------------------------------|
|-------------------------------------------------|
|-------------------------------------------------|
|--11-11-11--11-11-11-11-14-14-14-12-12-12-11.----|
|--11-11-11--11-11-11-11-11-11-11-11-11-11-11.----|
|--11-11-11--11-11-11-11-11-11-11-11-11-11-11.----|

|-------------------------------------------------|
|-------------------------------------------------|
|-------------------------------------------------|
|--9-9-9--9-9-9-9-9-9-9-7-7-7---------------------|
|--7-7-7--7-7-7-7-7-7-7-7-7-7-11-11---------------|
|--77-7--7-7-7-7-7-7-7-7-7-7-7--7---------------| x2

|-------------------------------------------------|
|-------------------------------------------------|
|-------------------------------------------------|
|--11-11-11.--11-11-11.--12-12-12-12-11.-11-------|
|--11-11-11.--11-11-11.--11-11-11-11-11.-11-------|
|--11-11-11.--11-11-11.--11-11-11-11-11.-11-------|

|-------------------------------------------------|
|-------------------------------------------------|
|-------------------------------------------------|
|--11-11-11.--11-11-11.--12-12-12-12-9------------|
|--11-11-11.--11-11-11.--11-11-11-11-9------------|
|--11-11-11.--11-11-11.--11-11-11-11-9------------|

|-------------------------------------------------|
|-------------------------------------------------|
|-------------------------------------------------|
|--9-9-9--9-9-9-9-9-9-9-7-7-7---------------------|
|--7-7-7--7-7-7-7-7-7-7-7-7-7-11-11---------------|
|--77-7--7-7-7-7-7-7-7-7-7-7-7--7---------------| x2

Pause before 2nd verse
(Same effect as verse)
|--------------------------------------------------|
|--------------------------------------------------|
|--11-11-11-11-11-11-11-11-11-11-11-11-11-11-11-11-|
|--x-x--x--x--x--x--x--x--x--x--x--x--x--x--x--x--|
|--9--9--9--9--9--9--9--9--9--9--9--9--9--9--9--9--|
|--------------------------------------------------|

Verse part i

Verse part ii

Verse part iii

Pre Chorus
|--------------------------------------------------------------------------|
|--------------------------------------------------------------------------|
|--------------------------------------------------------------11*---------|
|--4-4-4-------4-4-4-------4-4-----6-6-6-------6-6-6-------6-6-------------|
|--4-4-4-5-5-5-4-4-4-5-5-5-4-4-5-4-6-6-6-7-7-7-6-6-6-7-7-7-6-6-------------|
|--4-4-4-------4-4-4-------4-4-----6-6-6-------6-6-6-------6-6-------------|

|--------------------------------------------------------------------------|
|--------------------------------------------------------------------------|
|--------------------------------------------------------------------------|
|--4-4-4.------4-4-4.------4-4-----6--6--6-6/7--7--7-7/9-9-----------------|
|--4-4-4.------4-4-4.------4-4-----6--6--6-6/7--7--7-7/9-9-----------------|
|--4-4-4.------4-4-4.------4-4-----6--6--6-6/7--7--7-7/9-9-----------------|

Chorus

Bridge
|---------------------------------------------|
|---------------------------------------------|
|---------------------------------------------|
|--0----0----0----0.--------------------------|
|--0----0----0----0.--------------------------|
|--0----0----0----0.--------------------------|

|------------------------------------------------------------------|-------|
|------------------------------------------------------------------|-------|
|------------------------------------------------------------------|-------|
|--0-0-0-0--0-0-0-0--0-0-0-0--0-0-0-0---------------------------|--11.--|
|--0-0-0-0--0-0-0-0--0-0-0-0--0-0-0-0---------------------------|--11.--|
|--0-0-0-0--0-0-0-0--0-0-0-0--0-0-0-0---------------------------|--11.--|
   . . . .   . . . .   . . . .   . . . .                                   end on this
palm mute, repeat all through this is as real as it gets

|--------------------------------------------------------------------------|
|--------------------------------------------------------------------------|
|-------------------------------------13\----------------------------------|
|--11\--0-0-0-0--0-0-0-0---0-0-0-0---x-\--0-0-0-0---0-0-0-0---0-0-0-0-----|
|--11\--0-0-0-0--0-0-0-0---0-0-0-0--11\--0-0-0-0---0-0-0-0---0-0-0-0-----|
|--11\--0-0-0-0---0-0-0-0---0-0-0-0--------0-0-0-0---0-0-0-0--0-0-0-0-----|
        . . . .   . . . .   . . . .        . . . .   . . . .   . . . .
|--------------------------------------------------------------------------|
|--------------------------------------------------------------------------|
|-------------------------------------13\----------------------------------|
|--11\--0-0-0-0--0-0-0-0---0-0-0-0---x-\--0-0-0-0---0-0-0-7---0-0-0-9-----|
|--11\--0-0-0-0--0-0-0-0---0-0-0-0--11\--0-0-0-0---0-0-0-7---0-0-0-9-----|
|--11\--0-0-0-0---0-0-0-0---0-0-0-0--------0-0-0-0---0-0-0-7--0-0-0-9-----|
        . . . .   . . . .   . . . .        . . . .   . . .     . . .
Chorus (clean)
|-------------------------------------------------|
|-------------------------------------------------|
|-------------------------------------------------|
|--11-11-11--11-11-11-11-14-14-14-12-12-12-11-11--|
|--11-11-11--11-11-11-11-11-11-11-11-11-11-11-11--|
|--11-11-11--11-11-11-11-11-11-11-11-11-11-11-11--|

|-------------------------------------------------|
|-------------------------------------------------|
|-------------------------------------------------|
|--11-11-11--11-11-11-11-14-14-14-14-14-11--------|
|--11-11-11--11-11-11-11-11-11-11-11-11-11--------|
|--11-11-11--11-11-11-11-11-11-11-11-11-11--------|

Distortion kicks in
|-------------------------------------------------|
|-------------------------------------------------|
|-------------------------------------------------|
|--9-9-9--9-9-9-9-9-9-9-7-7-7---------------------|
|--7-7-7--7-7-7-7-7-7-7-7-7-7-11-11---------------|
|--77-7--7-7-7-7-7-7-7-7-7-7-7--7---------------| x2

|-------------------------------------------------|
|-------------------------------------------------|
|-------------------------------------------------|
|--11-11-11.--11-11-11.--12-12-12-12-11.-11-------|
|--11-11-11.--11-11-11.--11-11-11-11-11.-11-------|
|--11-11-11.--11-11-11.--11-11-11-11-11.-11-------|

|-------------------------------------------------|
|-------------------------------------------------|
|-------------------------------------------------|
|--11-11-11.--11-11-11.--12-12-12-12-9------------|
|--11-11-11.--11-11-11.--11-11-11-11-9------------|
|--11-11-11.--11-11-11.--11-11-11-11-9------------|

|-------------------------------------------------|
|-------------------------------------------------|
|-------------------------------------------------|
|--9-9-9--9-9-9-9-9-9-9-7-7-7---------------------|
|--7-7-7--7-7-7-7-7-7-7-7-7-7-11-11---------------|
|--77-7--7-7-7-7-7-7-7-7-7-7-7--7---------------| x2


Then into....
|-------------------------------------------------|
|-------------------------------------------------|
|--11-11-11--11-11-11-11--------------------------|
|--11-11-11--11-11-11-11--------------------------|
|--11-11-11--11-11-11-11-14-14-14-12-12-12-11-11--| x2

|-------------------------------------------------|
|-------------------------------------------------|
|-------------------------------------------------|
|--7--7--7--7-7-7-7-7--4--4--4--4-2-2-2-2-2-------|
|--7--7--7--7-7-7-7-7--4--4--4--4-2-2-2-2-2-------|
|--7--7--7--7-7-7-7-7--4--4--4-4-2-2-2-2-2-------|

|-------------------------------------------------|
|-------------------------------------------------|
|--11-11-11--11-11-11-11--------------------------|
|--11-11-11--11-11-11-11--------------------------|
|--11-11-11--11-11-11-11-14-14-14-12-12-12-11-11--| x2

|-------------------------------------------------|
|-------------------------------------------------|
|-------------------------------------------------|
|--7--7--9--9-9-9-9-9--4--4--6--6-2-2-2-2-2-------|
|--7--7--7--7-7-7-7-7--4--4--4--4-2-2-2-2-2-------|
|--7--7--7--7-7-7-7-7--4--4--4-4-2-2-2-2-2-------|

|-------------------------------------------------|
|-------------------------------------------------|
|--11---------------------------------------------|
|--11-keep strumming with slow phaser effect-----|
|--11-drop the pitch at the end------------------|
(use a pitch shifter or just slide to open)

Outro
|------------------------------------------------------------------------|
|------------------------------------------------------------------------|
|------------------------------------------------------------------------|
|--11-11-11--11-11-11-11-14-14-14-12-12-12-11-11--------2--0--------2--0-|
|--11-11-11--11-11-11-11-11-11-11-11-11-11-11-11--------2--0--------2--0-|
|--11-11-11--11-11-11-11-11-11-11-11-11-11-11-11--4>----2--0--4>----2--0-|x2

Finish on
|-------------------|
|-------------------|
|-------------------|
|----14------|
|----11------|
|----11------|





Comments


Popular 36 Crazyfists tabs & chords
An Agreement Called Forever Bass Tabs
At The End Of August 2 Bass Tabs
Chalk White Bass Tabs
Bloodwork 1 Tabs
Bloodwork 3 Tabs
On Any Given Night Tabs
The Heart And The Shape Tabs
Waiting On A War 1 Tabs
We Gave It Hell 1 Tabs
When Distance Is The Closest Reminder Tabs


Song lyrics



↑ Back to top | Tablatures and chords are parodies/interpretations of the original songs. You may use it for private study, scholarship, research or language learning purposes only
© 2014 AZChords.com Contact us | Privacy policy | DMCA | Add/correct tabs | Request tabs | Top 50 tabs