>
 >
Felt Through A Phone Line

Felt Through A Phone Line Guitar Tabs

36 Crazyfists - Felt Through A Phone Line chords, tabs, tablatures, lyrics

Guitar lessons | Add/correct | Request | Top 50 tabs Artists:  A B C D E F G H I J K L M N O P Q R S T U V W X Y Z 0-9

Felt Through A Phone Line Guitar Tabs – 36 Crazyfists

CD, Sheet music, Poster

Do you like Felt Through A Phone Line? Share with your friends now
TabsTabs v2
36 Crazyfists
Guitar Tab
Drop C Tuning - CGCFAD (Full Step With Drop D)

. Palm Mute
\ Slide Down
/ Slide Up
x Muted Note/String
p Pull Off

Note:
During The 'Verses' The Palm Mutes Are Downward Strums.
In The 'Pre Chorus' And 'Chorus Extension' They Are Alternate -
Fast Sweeping Strums.So Up's AND Down's! =D


Intro

Lead Guitar
0:00
|---------------------------------------------------------------------|
|10---10---10---10---8---8---8---8---6---6---6---6---6---6---6---6----|
|---9----9----9----9---9---9---9---9---9---9---9---9---9---9---9---9--|
|---------------------------------------------------------------------| x2
|---------------------------------------------------------------------|
|---------------------------------------------------------------------|

Chorus One

Rhythm Guitar
0:12
|----|----|----|----|----|----|----|------>
|----|----|----|----|----|----|----|------>
|5555|5555|5555|5777|2222|2222|2222|2277-->
|3333|3333|3333|3555|0000|0000|0000|0055-->
|3333|3333|3333|3555|0000|0000|0000|0055-->
|3333|3333|3333|3555|0000|0000|0000|0055-->

0:18
|----|----|----|----|----|----|----|------|
|----|----|----|----|----|----|----|------|
|5555|5555|5555|5777|9999|9999|----|------|
|3333|3333|3333|3555|7777|7777|9999|1010-- x1
|3333|3333|3333|3555|7777|7777|9999|1010--
|3333|3333|3333|3555|7777|7777|9999|1010--

Pre Verse

0:24
|-------|----------|
|--5----|-----3----|
|--5----|-----2----|
|3-3----|2-0--0----| x1
|3-3----|2-0--0----|
|3------|2-0-------|

Verse One
0:30
|-------|---|-------|---|-------|---|-------|----->
|-------|---|-------|---|-------|---|-------|----->
|----9--|---|----9--|---|----9--|---|----9--|----->
|--7---7|--7|--7---7|--7|--7---5|--7|--7---7|--7-->
|8------|8--|8------|8--|5------|5--|5------|5---->
|-------|---|-------|---|-------|---|-------|----->

0:37
|-------|---|-------|---|-------|---|----------|
|-------|---|-------|---|-------|---|----------|
|----9--|---|----9--|---|----9--|---|----9-----|
|--7---7|--7|--7---7|--7|--7---5|--7|--7-------| x1
|8------|8--|8------|8--|5------|5--|7---------|
|-------|---|-------|---|-------|---|----------|


Two Guitars Are Playing Different Things During
This Next Part,I've Just Mixed The Two Up The Best I Could.

0:43
|-----------------------------|------------------------|
|-----------------------------|------------------------|
|---9----9----101010-9-9-9-9-9|---9----9-----9---------|
|77-7-77-7-77--7-7-7-7-7-7-7-7|77-7-77-7-777-7-777777--| x1
|88---88---88--8-8-8-8-8-8-7-7|55---55---555---557778--|
|-----------------------------|------------------------|
 ..   ..   ..  . . . . . . . . ..   ..   ...   ......

0:49
|-----------------------------|--------------------------|
|-----------------------------|--------------------------|
|---9----9----101010-9-9-9-9-9|---9---99---9---9---------|
|77-7-77-7-77--7-7-7-7-7-7-7-7|77-7-7-77-7-7-7-7-777777--| x1
|88---88---88--8-8-8-8-8-8-7-7|55---5----5---5---557778--|
|-----------------------------|--------------------------|
 ..   ..   ..  . . . . . . . . ..   .   ..   .   ......

Post Verse

0:55
|-----|-------|
|----5|--5----|
|--5--|----5--|
|3----|0------| x1
|3----|0------|
|3----|0------|

Pre Chorus

1:01                     1:08
|-----|--------|---------|--------|--------|-----------|
|-----|--------|------6--|--------|--------|------6----|
|----9|-------9|--------9|-------9|-------9|--------9--|
|000-x|00-000-x|000-0----|00-000-x|00-000-x|000-0------| x1
|000-7|00-000-7|000-0----|00-000-7|00-000-7|000-0------|
|000--|00-000--|000-0----|00-000--|00-000--|000-0------|
 ...   .. ...   ... .     .. ...   .. ...   ... .

Chorus Two

Rhythm Guitar
1:15
|----|----|----|----|----|----|----|------>
|----|----|----|----|----|----|----|------>
|5555|5555|5555|5777|2222|2222|2222|2277-->
|3333|3333|3333|3555|0000|0000|0000|0055-->
|3333|3333|3333|3555|0000|0000|0000|0055-->
|3333|3333|3333|3555|0000|0000|0000|0055-->

1:22
|----|----|----|----|----|----|----|---------|
|----|----|----|----|----|----|----|---------|
|5555|5555|5555|5777|9999|9999|----|---------|
|3333|3333|3333|3555|7777|7777|9999|101010-\- x1
|3333|3333|3333|3555|7777|7777|9999|101010-\-
|3333|3333|3333|3555|7777|7777|9999|101010-\-

Chorus Extension One

Rhythm Guitar
1:28
|-------------------|---------------------|
|-------------------|---------------------|
|-------------------|---------------------|
|3-333-3-3---333-3-3|0-000-0-0---000-0-0--| x1
|3-333-3-3---333-3-3|0-000-0-0---000-0-0--|
|3-333-3-3---333-3-3|0-000-0-0---000-0-0--|
 . ... . .   ... . . . ... . .   ... . .

1:34
|-------------------|-----------------------|
|-------------------|-----------------------|
|-------------------|-----------------------|
|3-333-3-3---333-3-3|7-777-7-7---9-9910-10--| x1
|3-333-3-3---333-3-3|7-777-7-7---9-9910-10--|
|3-333-3-3---333-3-3|7-777-7-7---9-9910-10--|
 . ... . .   ... . . ..... . .   . .. .  .

Lead Guitar
1:28
|---------------|----------------->
|6---6---6---6--|--5---5---5---5-->
|--9---9---9---9|7---7---7---7---->
|---------------|----------------->
|---------------|----------------->
|---------------|----------------->

1:34
|---------------|-------------------|
|6---6---6---6--|10---10---12---13--|
|--9---9---9---9|---9----9----9-----|
|---------------|-------------------| x1
|---------------|-------------------|
|---------------|-------------------|

Verse Two

Lead Guitar
1:40
|-------|---|-------|---|-------|---|----------|
|-------|---|-------|---|-------|---|----------|
|----9--|---|----9--|---|----9--|---|----9-----|
|--7---7|--7|--7---7|--7|--7---5|--7|--7-------| x1
|8------|8--|8------|8--|5------|5--|7---------|
|-------|---|-------|---|-------|---|----------|

1:46                        1:54
|-------|-------|-----------|-----------|-------|-----------|
|-------|-------|-----------|-----------|-------|-----------|
|----9--|--9----|----9------|----9------|----9--|----9---9--|
|--7---7|-------|--7---5----|--7---7----|--7---7|--7---7----| x1
|8------|8------|5----------|8----------|5------|7----------|
|-------|-------|-----------|-----------|-------|-----------|

Rhythm Guitar (Bass)
1:46
|--------------------------------------|
|--------------------------------------|
|--------------------------------------|
|8p7-----------------------------------| x1
|--------------------------------------|
|----3-3-3----0-0-0----3-3-3----0-0-0--|

Rhythme Guitar
1:59
|-----------------------------|------------------------|
|-----------------------------|------------------------|
|---9----9----101010-9-9-9-9-9|---9----9-----9---------|
|77-7-77-7-77--7-7-7-7-7-7-7-7|77-7-77-7-777-7-777777--| x1
|88---88---88--8-8-8-8-8-8-7-7|55---55---555---557778--|
|-----------------------------|------------------------|
 ..   ..   ..  . . . . . . . . ..   ..   ...   ......

2:05
|-----------------------------|--------------------------|
|-----------------------------|--------------------------|
|---9----9----101010-9-9-9-9-9|---9---99---9---9---------|
|77-7-77-7-77--7-7-7-7-7-7-7-7|77-7-7-77-7-7-7-7-777777--| x1
|88---88---88--8-8-8-8-8-8-7-7|55---5----5---5---557778--|
|-----------------------------|--------------------------|
 ..   ..   ..  . . . . . . . . ..   .   ..   .   ......

Post Verse
2:11
|-----|-------|
|----5|--5----|
|--5--|----5--|
|3----|0------| x1
|3----|0------|
|3----|0------|

Pre Chorus
2:17                     2:24
|-----|--------|---------|--------|--------|-----------|
|-----|--------|------6--|--------|--------|------6----|
|----9|-------9|--------9|-------9|-------9|--------9--|
|000-x|00-000-x|000-0----|00-000-x|00-000-x|000-0------| x1
|000-7|00-000-7|000-0----|00-000-7|00-000-7|000-0------|
|000--|00-000--|000-0----|00-000--|00-000--|000-0------|
 ...   .. ...   ... .     .. ...   .. ...   ... .

Chorus Three

Rhythm Guitar
2:31
|----|----|----|----|----|----|----|------>
|----|----|----|----|----|----|----|------>
|5555|5555|5555|5777|2222|2222|2222|2277-->
|3333|3333|3333|3555|0000|0000|0000|0055-->
|3333|3333|3333|3555|0000|0000|0000|0055-->
|3333|3333|3333|3555|0000|0000|0000|0055-->

2:38
|----|----|----|----|----|----|----|---------|
|----|----|----|----|----|----|----|---------|
|5555|5555|5555|5777|9999|9999|----|---------|
|3333|3333|3333|3555|7777|7777|9999|101010-\- x1
|3333|3333|3333|3555|7777|7777|9999|101010-\-
|3333|3333|3333|3555|7777|7777|9999|101010-\-

Chorus Extension Two

Rhythm Guitar
2:44
|-------------------|---------------------|
|-------------------|---------------------|
|-------------------|---------------------|
|3-333-3-3---333-3-3|0-000-0-0---000-0-0--| x1
|3-333-3-3---333-3-3|0-000-0-0---000-0-0--|
|3-333-3-3---333-3-3|0-000-0-0---000-0-0--|
 . ... . .   ... . . . ... . .   ... . .

2:50
|-------------------|-----------------------|
|-------------------|-----------------------|
|-------------------|-----------------------|
|3-333-3-3---333-3-3|7-777-7-7---9-9910-10--| x1
|3-333-3-3---333-3-3|7-777-7-7---9-9910-10--|
|3-333-3-3---333-3-3|7-777-7-7---9-9910-10--|
 . ... . .   ... . . ..... . .   . .. .  .

Lead Guitar
2:44
|---------------|----------------->
|6---6---6---6--|--5---5---5---5-->
|--9---9---9---9|7---7---7---7---->
|---------------|----------------->
|---------------|----------------->
|---------------|----------------->

2:50
|---------------|-------------------|
|6---6---6---6--|10---10---12---13--|
|--9---9---9---9|---9----9----9-----|
|---------------|-------------------| x1
|---------------|-------------------|
|---------------|-------------------|

Break Down

Rhythm Guitar
2:56
|-------|
|-------|
|555----|
|333----| x1
|333----|
|333----|

Both Guitars
2:58                     3:02
|------------------------|------------------------------------|
|------------------------|------------------------------------|
|5-5-5-4-4-4-4--4-4-4----|5-5-5-5--5-5-5--4-4-4-4--4-4-4-4----|
|3-3-3-2-2-2-2--2-2-2-x-0|3-3-3-3--3-3-3--2-2-2-2--2-2-2-2-0--| x1
|3-3-3-2-2-2-2--2-2-2-x-0|3-3-3-3--3-3-3--2-2-2-2--2-2-2-2-0--|
|3-3-3-2-2-2-2--2-2-2-x-0|3-3-3-3--3-3-3--2-2-2-2--2-2-2-2-0--|

3:08
|----------------|------------------|
|----------------|------------------|
|5-5-5-5--5-5-5--|4-4-4--4-4-4-4----|
|3-3-3-3--3-3-3--|2-2-2--2-2-2-2p0--| x1
|3-3-3-3--3-3-3--|2-2-2--2-2-2-2p0--|
|3-3-3-3--3-3-3--|2-2-2--2-2-2-2p0--|

3:14
|----------------|------------------|
|----------------|------------------|
|5-5-5-5--5-5-5--|4-4-4--4-4-4-4----|
|3-3-3-3--3-3-3--|2-2-2--2-2-2-2-0--| x1
|3-3-3-3--3-3-3--|2-2-2--2-2-2-2-0--|
|3-3-3-3--3-3-3--|2-2-2--2-2-2-2-0--|

Bridge Section

Rhythm Guitar
3:20
|---5-----5----------|---5-----5------------|
|---5-----5----------|---5-----5------------|
|--------------------|----------------------|
|--------------------|----------------------| x1
|--------------------|----------------------|
|33---333---333333555|00---000---005557777--|

3:26
|---5-----5----------|---5-----5---------|
|---5-----5----------|---5-----5---------|
|--------------------|-------------------|
|--------------------|-------------------| x1
|--------------------|00---000---022223--|
|33---333---333333555|-------------------|

Chorus Extension Two

Rhythm Guitar
3:32
|----------------------------------|
|----------------------------------|
|----------------------------------|
|33333333333333330000000000000000-- x1
|33333333333333330000000000000000--
|33333333333333330000000000000000--

3:39
|----------------------------------|
|----------------------------------|
|----------------------------------|
|333333333333333377777777999910-\--| x1
|333333333333333377777777999910-\--|
|333333333333333377777777999910-\--|

Lead Guitar
3:32
|---------------|----------------->
|6---6---6---6--|--5---5---5---5-->
|--9---9---9---9|7---7---7---7---->
|---------------|----------------->
|---------------|----------------->
|---------------|----------------->

3:39
|---------------|-------------------|
|6---6---6---6--|10---10---12---13--|
|--9---9---9---9|---9----9----9-----|
|---------------|-------------------| x1
|---------------|-------------------|
|---------------|-------------------|

Extra Bit

Rhythm Guitar
3:45
|-------------------|------------------------|
|-------------------|------------------------|
|-------------------|--------9/10-9----------|
|3-333-3-3---333-3-3|0-000-0-x----x-000-0-0--| x1
|3-333-3-3---333-3-3|0-000-0-7/-8-7-000-0-0--|
|3-333-3-3---333-3-3|0-000-0--------000-0-0--|
 . ... . .   ... . . . ... .        ... . .

3:50
|--------------------|----------------------|
|--------------------|----------------------|
|----------5---------|--------7-------------|
|3-333-3-3-x--333-3-3|0-000-0-x--0000-2222--| x1
|3-333-3-3-3--333-3-3|0-000-0-5--0000-2222--|
|3-333-3-3----333-3-3|0-000-0----0000-2222--|
 . ... . .    ... . . . ... .    ....

3:57
|-------|-----------|--------|
|--5----|-----3-----|--------|
|--5----|-----2----5|--------|
|3-3----|2-0--0----3|3----3--| x1
|3-3----|2-0--0----3|3----3--|
|3------|2-0--------|3-------|

Outro

4:07
|-----|-------|-------|-------|-------|---------|
|--5--|------5|----5--|------5|----5--|------5--|
|----5|----5--|------5|----5--|------5|----5----|
|0----|0-3----|3-0----|0-3----|3-0----|0-3------| x1
|-----|-------|-------|-------|-------|---------|
|-----|-------|-------|-------|-------|---------|





Comments


Popular 36 Crazyfists tabs & chords
All Night Lights Tabs
Between The Anchor And The Air Tabs
Bloodwork 4 Tabs
City Below Tabs
Long Road To The Late Nights Intro Tabs
Long Roads To Late Nights Tabs
On Any Given Night Tabs
Slit Wrist Theory 4 Tabs
The Heart And The Shape Tabs
Bloodwork Ukulele


Song lyrics



↑ Back to top | Tablatures and chords are parodies/interpretations of the original songs. You may use it for private study, scholarship, research or language learning purposes only
© 2014 AZChords.com Contact us | Privacy policy | DMCA | Add/correct tabs | Request tabs | Top 50 tabs