>
 >
Destroy The Map

Destroy The Map Guitar Tabs

36 Crazyfists - Destroy The Map chords, tabs, tablatures, lyrics

Guitar lessons | Add/correct | Request | Top 50 tabs Artists:  A B C D E F G H I J K L M N O P Q R S T U V W X Y Z 0-9

Destroy The Map Guitar Tabs – 36 Crazyfists

CD, Sheet music, Poster

Do you like Destroy The Map? Share with your friends now
Bass TabsTabsTabs v2
The other version is trampy so, here you go...

Tuning: C G C F A D
 
 . : Palm mute
 / : Slide Up
 \ : Slide Down
 ~ : Let Note Ring
 x : Muted String
 ^ : Bend note
 
 Intro
|-99999-99999--999--1212121212-1414141414-121212-|
|-77777-77777--777--1010101010-1212121212-101010-|
|------------------------------------------------|
|------------------------------------------------|
|------------------------------------------------|
|------------------------------------------------|

|-9~--12~--14~--12~-|
|-7~--10~--12~--10~-|
|-------------------|
|-------------------|
|-------------------|
|-------------------|
 
 Verse
|----------------------|
|----------------------|
|-------------9---9/11-|
|---7-11--0-7---7------| x2
|-9--------------------|
|----------------------|

|------------------------------------------------------|
|------------------------------------------------------|
|--------------9---11---12--1111111111111111-1313-1414-|
|-11-7---7-11----7----7------9-9-9-9-9-9-9-9-1111-1212-|
|------9--------------------^----------this bit x2---^-|
|------------------------------------------------------|
 
 Pre Chorus
|----------------------------------------|
|----------------------------------------|
|-------------------------------6-6-7-6--|
|-99-11-99-11-9-14-11---222-000-x-x-x-x--| x2
|-99--9-99--9-9--9--9---222-000-4-4/5-4--|
|-----------------------222-000----------|
  ..  . ..  . .  .  .

|------------------------------------------|
|------------------------------------------|
|------------------------------------------|
|-99-11-99-11-9-14-11--777-99--555-77-6-7--|
|-99--9-99--9-9--9--9--777-77--555-55-4-5--|
|------------------------------------------|
  ..  . ..  . .  .  .  ... ..  ... .. . .

|-----|
|-----|
|-----|
|-4-5-|
|-4-5-|
|-4-5-|
 
back 2 chorus:
|----------------------------------------------------------------|
|----------------------------------------------------------------|
|---14\13-13-13\11-11-11-11/13-11----14\13/14-16-14-14\13/14\13--|
|-4--x--x--x--x--x--x--x--x--x--x--0--x--x--x--x--x--x--x--x--x--|
|-4-12\11-11-11\-9--9--9--9/11--9--0-12\11/12-14-12-12\11/12\11--|
|-4--------------------------------0-----------------------------|

|------------------------------------------------------------|
|------------------------------------------------------------|
|---14\13-13-13\11-11-11-11/13-11------14\13/14-16-14-16/18--|
|-4--x--x--x--x--x--x--x--x--x--x--0-0--x--x--x--x--x--x--x--|
|-4-12\11-11-11\-9--9--9--9/11--9--0-0-12\11/12-14-12-14/16--|
|-4--------------------------------0-0-----------------------|
                                   ^pause on this 


 Bridge
|-----------------------------------------------------------------|
|-----------------------------------------------------------------|
|-----------------------------------------------------------------|
|-7-5---4-7-0-0-00-0--4-7-0-0--0-7-9--4-7-0-0-00-0--4-7-0-0-99----|
|-7-5---4-7-0-0-00-0--4-7-0-0--0-7-9--4-7-0-0-00-0--4-7-0-0-99----|
|-7-5---4-7-0-0-00-0--4-7-0-0--0-7-9--4-7-0-0-00-0--4-7-0-0-99-7^-|


 The solo bit:

|--14~-16~/17\12~/14\9--|
|-----------------------|
|-----------------------|
|-----------------------|
|-----------------------|
|-----------------------|

 Thing after it:
|-----------|
|-----------|
|-----------|
|-9-7--7-5--|
|-9-7--7-5--|
|-9-7--7-5--|

 End on:
|-99999-99999--|
|-77777-77777--|
|--------------|
|--------------|
|--------------|
|--------------|





Comments


Popular 36 Crazyfists tabs & chords
Slit Wrist Theory Bass Tabs
At The End Of August Tabs
Ceramic Intro Tabs
Cure Eclipse Tabs
Cure Eclipse 1 Tabs
Destroy The Map Intro Tabs
On Any Given Night Tabs
The Tide And Its Takers Tabs
Waterhaul Tabs
City Below Ukulele


Song lyrics



↑ Back to top | Tablatures and chords are parodies/interpretations of the original songs. You may use it for private study, scholarship, research or language learning purposes only
© 2014 AZChords.com Contact us | Privacy policy | DMCA | Add/correct tabs | Request tabs | Top 50 tabs