>
 >
Bury Me Where I Fall

Bury Me Where I Fall Guitar Tabs

36 Crazyfists - Bury Me Where I Fall chords, tabs, tablatures, lyrics

Guitar lessons | Add/correct | Request | Top 50 tabs Artists:  A B C D E F G H I J K L M N O P Q R S T U V W X Y Z 0-9

Bury Me Where I Fall Guitar Tabs – 36 Crazyfists

CD, Sheet music, Poster

Do you like Bury Me Where I Fall? Share with your friends now
Bass TabsBass Tabs v2Tabs
This is a badass song and I was suprised to see no other versions. So here it is.
I realise this isn't perfect or a hundred percent correct but it's better than nothing 
Of course I welcome corrections although this is my first 'metal' tab so go easy :)

Rhythm is something you guys can work out for yourselves.


Drop B: (B F# B E G# C#)


e|-------------------------------------------------------------------------|
B|-------------------------------------------------------------------------|
G|-------------------------------------------------------------------------|
D|-------------------------------------------------------------------------|
A|-------------------------------------------------------------------------|
E|--0h1p0--0h1p0----0h1p0--0h1p0-00--0h1p0-0h1p0---0h1p0--0h1p0--1-0h1p0---|

e|-------------------------------------------------------------------------|
B|-------------------------------------------------------------------------|
G|-------------------------------------------------------------------------|
D|---------------6---------------------------------------6-1-3-5-8-1-3-3-7-|
A|---------------6---------------------------------------6-1-3-5-8-1-3-3-7-|
E|-0h1p0--0h1p0--6-0h1p0--0h1p0--1--0h1p0--0h1p0--0h1p0--6-1-3-5-8-1-3-3-7-|


e|-------------------------------------------------------------------------|
B|-------------------------------------------------------------------------|
G|-------------------------------------------------------------------------|
D|-5-0-1-3-5-7-8-0-1-3-5-7-8-0-1-3-5-7-8-0-1-3-5-7-8-0-1-3-5-7-8-----------|
A|-5-0-1-3-5-7-8-0-1-3-5-7-8-0-1-3-5-7-8-0-1-3-5-7-8-0-1-3-5-7-8-----------|
E|-5-0-1-3-5-7-8-0-1-3-5-7-8-0-1-3-5-7-8-0-1-3-5-7-8-0-1-3-5-7-8-----------|

e|-------------------------------------------------------------------------|
B|-------------------------------------------------------------------------|
G|-------------------------------------------------------------------------|
D|-0-1-3-5-7-8-0-1-3-5-7-8-0-1-3-5-7-8-0-1-3-5-7-8-0-1-3-5-7-8-0-1-3-5-7-8-|
A|-0-1-3-5-7-8-0-1-3-5-7-8-0-1-3-5-7-8-0-1-3-5-7-8-0-1-3-5-7-8-0-1-3-5-7-8-|
E|-0-1-3-5-7-8-0-1-3-5-7-8-0-1-3-5-7-8-0-1-3-5-7-8-0-1-3-5-7-8-0-1-3-5-7-8-|

e|-------------------------------------------------------------------------|
B|-------------------------------------------------------------------------|
G|---9---9----5---5----9---9----5---5--------------------------------------|
D|-7-9-7-9--3-5-3-5--7-9-7-9--3-5-3-5--|7-5-3-5-7-|    |-------------------|
A|-7-7-7-7--3-3-3-3--7-7-7-7--3-3-3-3--|9-7-5-7-9-| X2 |-------------------|
E|-7---7----3---3----7---7-0--3---3----|0-0-0-0-0-|    |-0h1p0-0h1p0-0h1p0-|

e|-------------------------------------------------------------------------|
B|-------------------------------------------------------------------------|
G|-------------------------------------------------------------------------|
D|----------------------------9/0------------------------------------------|
A|----------------------------7/0--------------------------1---------------|
E|-1-0h1p0-0h1p0-0h1p0-0h1p0--0/0-0h1p0-0h1p0--0h1p0-0h1p0-1--0h1p0-0h1p0--|

e|-------------------------------------------------------------------------|
B|-------------------------------------------------------------------------|
G|-------------------------------------------------------------------------|
D|-------------------------------------------------------------------------|
A|-------------------------------------------------------------------------|
E|-0h1p0-0h1p0--0h1p0------------------------------------------------------|

e|-------------------------------------------------------------------------|
B|-------------------------------------------------------------------------|
G|-------------------------------------------------------------------------|
D|-0-1-3-5-7-8-0-1-3-5-7-8-0-1-3-5-7-8-0-1-3-5-7-8-0-1-3-5-7-8-0-1-3-5-7-8-|
A|-0-1-3-5-7-8-0-1-3-5-7-8-0-1-3-5-7-8-0-1-3-5-7-8-0-1-3-5-7-8-0-1-3-5-7-8-|
E|-0-1-3-5-7-8-0-1-3-5-7-8-0-1-3-5-7-8-0-1-3-5-7-8-0-1-3-5-7-8-0-1-3-5-7-8-|

e|-------------------------------------------------------------------------|
B|-------------------------------------------------------------------------|
G|---9---9----5---5----9---9----5---5--------------------------------------|
D|-7-9-7-9--3-5-3-5--7-9-7-9--3-5-3-5--|7-5-3-5-7-|    |-------------------|
A|-7-7-7-7--3-3-3-3--7-7-7-7--3-3-3-3--|9-7-5-7-9-| X2 |-------------------|
E|-7---7----3---3----7---7-0--3---3----|0-0-0-0-0-|    |-1-0-1-0--1-0-1-0--|

e|-------------------------------------------------------------------------|
B|-------------------------------------------------------------------------|
G|-------------------------------------------------------------------------|
D|-------------------------------------------------------------------------|
A|---------------------------------------------------------1---1---1---1---|
E|-1-0-1-0-1-0-1-0-1-0-1-0-1-0-1-0-1-0-1-0-1-0-1-0-1-0-1-0-1-0-1-0-1-0-1---|

e|-------------------------------------------------------------------------|
B|-------------------------------------------------------------------------|
G|---9---9----5---5----9---9----5---5--------------------------------------|
D|-7-9-7-9--3-5-3-5--7-9-7-9--3-5-3-5--|7-5-3-5-7-|    |-------------------|
A|-7-7-7-7--3-3-3-3--7-7-7-7--3-3-3-3--|9-7-5-7-9-| X2 |-------------------|
E|-7---7----3---3----7---7-0--3---3----|0-0-0-0-0-|    |-1-0-1-0--1-0-1-0--|

e|-------------------------------------------------------------------------|
B|-------------------------------------------------------------------------|
G|-------------------------------------------------------------------------|
D|-------------------------------------------------------------------------|
A|-------------------------------------------------------------------------|
E|-0h1p0-0h1p0--0-0-0-1-0h1p0-0h1p0-0-1-0h1p0-0h1p0-0-1-0h1p0-0h1p0-0-0-0-1|

e|-------------------------------------------------------------------------|
B|-------------------------------------------------------------------------|
G|-------------------------------------------------------------------------|
D|-<5>-<7>------------------------------------------------0-3-0------------|
A|-<5>-<7>------------------------------------------------0-3-0------------|
E|-<5>-<7>-0h1p0-0-0h1p0-0-0h1p0-0-0h1p0-0-0h1p0-0-0h1p0--0-3-0------------|

e|-------------------------------------------------------------------------|
B|-------------------------------------------------------------------------|
G|-------------------------------------------------------------------------|
D|--------0-0-0-------0-0-0--------0-0-0-------0-0-0--3-0--------X---------|
A|--------0-0-0-------0-0-0--------0-0-0-------0-0-0--3-0--------X---------|
E|-0h1p0--0-0-0-0h1p0-0-0-0-0h1p-0-0-0-0-0h1p0-0-0-0--3-0--0h1p0-X-0h1p0---|

e|-------------------------------------------------------------------------|
B|-------------------------------------------------------------------------|
G|-------------------------------------------------------------------------|
D|-----------------------------X----------------0-0-0-(0)------------------|
A|-----------------------------X----------------0-0-0-(0)------------------|
E|-0h1p0-0-0h1p0-0h1p0-0-0h1p0-X--0h1p0-0-0h1p0-0-0-0-(0)------------------|

Voila.





Comments


Popular 36 Crazyfists tabs & chords
All I Am Bass Tabs
Ceramic Bass Tabs
Kenai Bass Tabs
Song For The Fisherman Bass Tabs
All Night Lights 1 Tabs
Aurora 2 Tabs
Bloodwork 1 Tabs
Destroy The Map Intro 1 Tabs
The Back Harlow Road Tabs
Two Months From A Year Tabs


Song lyrics



↑ Back to top | Tablatures and chords are parodies/interpretations of the original songs. You may use it for private study, scholarship, research or language learning purposes only
© 2014 AZChords.com Contact us | Privacy policy | DMCA | Add/correct tabs | Request tabs | Top 50 tabs