» » »

Bloodwork Tabs (ver.3)

Artists:  A B C D E F G H I J K L M N O P Q R S T U V W X Y Z # 

Bloodwork Tabs (ver.3)

36 Crazyfists
Rating:
4/5 (3 votes)

Tabs too difficult? Try these video lessons and learn fast.
                This is most of the song i think, its kinda hard 2 match it but it will work.

Tuning: CGCFAD

Intro:
D|-------------------------------------------------------------------------|
A|-------------------------------------------------------------------------|
F|-------------------------------------------------------------------------|
C|----9-9-10-10-9-9-----9-9-10-10-9-9----9-9-10-10-9-9-----12-12-10-10-9-9-|
G|7-7----------------------------------------------------------------------|
C|-----------------10-10--------------7-7--------------12-12---------------|
PM_________________________________________________________________________

D|-----------------------------------------------------------------------|
A|-----------------------------------------------------------------------|
F|--------------------------------------------------------12-12-10-10-9^-|
C|----9-9-10-10-9-9-----9-9-10-10-9-9----9-9-10-10-9-9-0-0---------------|
G|7-7--------------------------------------------------0-0---------------|
C|-----------------10-10--------------7-7--------------0-0---------------|
PM________________________________________________________
                                                       ^Distortion on

the final 9^ in this section ^^^ i believe is an artificial harmonic, but i didnt put it 
cause i aint sure.

Main Riff:
D|--------------------------------------------------------------------|
A|--------------------------------------------------------------------|
F|--------------------------------------------------14-14-12-12-11-11-|
C|2-2-0-0-2-0-0--12-12-10-10-9-9-7-7-5-7-7-7-7-0-0--x--x--x--x--x--x--|
G|2-2-0-0-2-0-0--12-12-10-10-9-9-7-7-5-7-7-7-7-0-0--12-12-10-10-9--9--|
C|2-2-0-0-2-0-0--12-12-10-10-9-9-7-7-5-7-7-7-7-0-0--------------------|


Verse is just intro wiv this played ova:
D|--------------------------|
A|--------------------------|
F|-14--14/7--7/9--9--12--11-|
C|--------------------------|
G|--------------------------|
C|--------------------------|

^Play this twice ova and on the second time use distortion on the last 2 notes (second 
the last note you play is also a artificial harmonic).

D|------------------------|
A|------------------------|
F|-9-11-12-14-------------|
C|-x-x--x--x---555555-33--|
G|-7-9--10-12--555555-33--|
C|-------------555555-33--|

D|------------------------|
A|------------------------|
F|-9-11-12-14-------------|
C|-x-x--x--x---555555-33--|
G|-7-9--10-12--555555-33--|
C|-------------555555-33--|

D|---------------|
A|---------------|
F|---------------|
C|-222-222-222-0-|
G|-222-222-222-0-|
C|-222-222-222-0-|

I think this is all of it.
            
Tabs too difficult? Try these video lessons and learn fast.




comments powered by Disqus
↑ Back to top | Tablatures and chords are parodies/interpretations of the original songs. You may use it for private study, scholarship, research or language learning purposes only