» » »

Aurora Tabs (ver.1)

Artists:  A B C D E F G H I J K L M N O P Q R S T U V W X Y Z # 

Aurora Tabs (ver.1)

36 Crazyfists
Rating:
3/5 (2 votes)

Tabs too difficult? Try these video lessons and learn fast.
                
Tuning: (low to high) C G C F A D



Intro
D|---------------------0-------------------------------------0-----------------|
A|------------------------6-----------6-------------------------6-----------6--|
F|--------10-----9-----------9-----9------------10-----9-----------9-----9-----|
C|------------------------------8-------------------------------------8--------|
G|---------8-----7-------------------------------8-----7-----------------------|
C|-0-0-0------0--------------------------0-0-0------0--------------------------|
   . . .      .                          . . .      .

D|--------------------------------------------------------|
A|--------------------------------------------------------|
F|--------------------------------------------------------|
C|--------10---10-------------10----------------12--------|
G|---------8----8--------------7----------------10--------|
C|-8-8-8---8-8--8---8-8-7-7-7--7--7-7-10-10-10--10--10-10-|
   . . .     .      . . . . .     . .  .  .  .       .  .

D|---------------------0-------------------------------------0-----------------|
A|------------------------6-----------6-------------------------6-----------6--|
F|--------10-----9-----------9-----9------------10-----9-----------9-----9-----|
C|------------------------------8-------------------------------------8--------|
G|---------8-----7-------------------------------8-----7-----------------------|
C|-0-0-0------0--------------------------0-0-0------0--------------------------|
   . . .      .                          . . .      .

D|--------------------------------------------------------|
A|--------------------------------------------------------|
F|--------------------------------------------------------|
C|--------10---10-------------10------------12------------|
G|---------8----8--------------7------------10------------|
C|-8-8-8---8-8--8---8-8-7-7-7--7--7-7-10-10-10------------|
   . . .     .      . . . . .     . .  .  .


Verse
D|----0---------------0---------------0---------------0------------|
A|-------6-----6---------6-----6---------6-----6---------6-----6---|
F|---------9-----9---------9-----9---------9-----9---------9-----9-|
C|-0---------0-----8---------8-----0---------0-----8---------8-----|
G|-----------------------------------------------------------------|
C|-----------------------------------------------------------------|

D|----0---------------0---------------0---------------0------------|
A|-------6-----6---------6-----6---------6-----6---------6-----6---|
F|---------9-----9---------9-----9---------9-----9---------9-----9-|
C|-0---------0-----8---------8-----0---------0-----8---------8-----|
G|-----------------------------------------------------------------|
C|-----------------------------------------------------------------|

D|------------------------------------------------------------------------------|
A|------------------------------------------------------------------------------|
F|-9----9----9------10-10-----10-10-----10-9----9----9*-----10-10-----12-12--\--|
C|-0----0----0----x--8--8---x--8--8---x--8-0----0---------x--8--8---x--8--8--\--|
G|-0----0----0----x--8--8---x--8--8---x--8-0----0---------x--8--8---x--8--8--\--|
C|-0----0----0----x--8--8---x--8--8---x--8-0----0---------x--8--8---x--8--8--\--|


Pre-Chorus
D|--------------------------------------------------------------------------------|
A|--------------------------------------------------------------------------------|
F|--------------------------------------------------------------------------------|
C|-7-7-----------------7-7---------------7-7-----------------7---------10--7------|
G|-----10-10-8-8-10-10-----10-10-8-8-7-7-----10-10-8-8-10-10----10--8---------10--|
C|--------------------------------------------------------------------------------|
   . .  .  . . .  .  . . .  .  . . . . . . .  .  . . .  .  .

D|-0----0----0----|
A|-6----6----6----|
F|-9----9----9----|
C|-0----0----0----|
G|-0----0----0----|
C|-0----0----0----|


Chorus
D|----------------------------------------------------------0----|
A|----------5------------6---------6------------------------6----|
F|----------------------------------------------------------9----|
C|-2--2--2--2----2-3--3--3----3-5--5--5--7-----7---0-0-0-0--0----|
G|-2--2--2--2----2-3--3--3----3-5--5--5--7-----7---0-0-0-0--0----|
C|-2--2--2--2----2-3--3--3----3-5--5--5--7-----7---0-0-0-0--0----|

D|----------------------------------------------------------|
A|----------5------------6---------6------------------------|
F|----------------------------------------------------------|
C|-2--2--2--2----2-3--3--3----3-5--5--5--7-----7---0-0-0-0--|
G|-2--2--2--2----2-3--3--3----3-5--5--5--7-----7---0-0-0-0--|
C|-2--2--2--2----2-3--3--3----3-5--5--5--7-----7---0-0-0-0--|

D|---------------------1--0------0------1--0------0--------------------|
A|----6--5------5------------1-----1----------1-----1----6--5------5---|
F|----------5-----5-3-------(3)------2-------(2)---------------7-------|
C|-0-------(0)------3-------(3)------2-------(2)------5-------(5)------|
G|-0-------(0)------1-------(1)------0-------(0)------5-------(5)------|
C|-0-------(0)----------------------------------------5-------(5)------|

D|---------------------1--0------0------1--0------0--------------------|
A|----6--5------5------------1-----1----------1-----1----6--5------5---|
F|----------5-----5-3-------(3)------2-------(2)---------------7-------|
C|-0-------(0)------3-------(3)------2-------(2)------5-------(5)------|
G|-0-------(0)------1-------(1)------0-------(0)------5-------(5)------|
C|-0-------(0)----------------------------------------5-------(5)------|


Intro (second half)
Verse
Pre-Chorus
Chorus


Fill
D|-----------------|
A|-----------------|
F|-----------------|
C|-0--------0------|
G|-0--------0------|
C|-0--------0------|

D|---------------------1--0------0------1--0------0--------------------|
A|----6--5------5------------1-----1----------1-----1----6--5------5---|
F|----------5-----5-3-------(3)------2-------(2)---------------7-------|
C|-0-------(0)------3-------(3)------2-------(2)------5-------(5)------|
G|-0-------(0)------1-------(1)------0-------(0)------5-------(5)------|
C|-0-------(0)----------------------------------------5-------(5)------|

D|---------------------1--0------0------1--0------0--------------------|
A|----6--5------5------------1-----1----------1-----1----6--5------5---|
F|----------5-----5-3-------(3)------2-------(2)---------------7-------|
C|-0-------(0)------3-------(3)------2-------(2)------5-------(5)------|
G|-0-------(0)------1-------(1)------0-------(0)------5-------(5)------|
C|-0-------(0)----------------------------------------5-------(5)------|


Bridge
D|--------------------------------|
A|--------------------------------|
F|-------14-------12--------------|
C|--------------------------------|
G|-------12-------10------7h8p7p0-|
C|-0-0-0------0-0-----0-0---------|
   . . .      . .     . .

D|----------------------------------------------------------------|
A|----------------------------------------------------------------|
F|----------------------------------------------------------------|
C|----------------------------------------------------------------|
G|-0-0-0-0---0-0-7h8p7p0-8h10p8p0-0-0-0-0---0-0-7h8p7p0-10p8h10---|
C|-0-0-0-0---0-0------------------0-0-0-0---0-0-------------------|
   . . . .   . .                  . . . .   . .

D|----------------------------------------------------------------|
A|----------------------------------------------------------------|
F|----------------------------------------------------------------|
C|------------------------------------------------------5h8h7-----|
G|-0-0-0-0---0-0-7h8p7p0-8h10p8p0-0-0-0-0---0-0-7h8p7p0-----------|
C|-0-0-0-0---0-0------------------0-0-0-0---0-0-------------------|
   . . . .   . .                  . . . .   . .

D|----------------------------------------------------------------|
A|----------------------------------------------------------------|
F|----------------------------------------------------------------|
C|----------------------------------------------------------------|
G|-0-0-0-0---0-0-7h8p7p0-8h10p8p0-0-0-0-0---0-0-7h8p7p0-10p8h10---|
C|-0-0-0-0---0-0------------------0-0-0-0---0-0-------------------|
   . . . .   . .                  . . . .   . .

D|---------------------------------------------------------------|
A|---------------------------------------------------------------|
F|--------------------------------------14-------12--------------|
C|---------------------------------------------------------------|
G|-0-0-0-0---0-0-7h8p7p0-8h10p8p0-------12-------10--------------|
C|-0-0-0-0---0-0------------------0-0-0------0-0-----0-0-3-3-3-3-|
   . . . .   . .                  . . .      . .     . . . . . .

D|--------------------------------|
A|--------------------------------|
F|-------14-------12--------------|
C|--------------------------------|
G|-------12-------10--------------|
C|-0-0-0------0-0-----0-0-3-3-3-3-|
   . . .      . .     . . . . . .

D|--------------------------------------------------------------|
A|--------------------------------------------------------------|
F|--------------------------------------------------------------|
C|--------------------------------------------------------------|
G|-0-0-0-0---0-0-0-0---------------------------7h8p7p0-8h10p8p0-|
C|-0-0-0-0---0-0-0-0--------------------------------------------|
   . . . .   . . . .

D|---------------------------------------------------------------|
A|---------------------------------------------------------------|
F|---------------------------------------------------------------|
C|---------------------------------------------------------------|
G|-0-0-0-0---0-0-0-0---------------------------7h8p7p0-10p8h10---|
C|-0-0-0-0---0-0-0-0---------------------------------------------|
   . . . .   . . . .

D|--------------------------------------------------------------|
A|--------------------------------------------------------------|
F|--------------------------------------------------------------|
C|--------------------------------------------------------------|
G|-0-0-0-0---0-0-0-0---------------------------7h8p7p0-7h10p7p0-|
C|-0-0-0-0---0-0-0-0--------------------------------------------|
   . . . .   . . . .

D|---------------------------------------------------------------|
A|---------------------------------------------------------------|
F|--------------------------------------14-------12--------------|
C|---------------------------------------------------------------|
G|-0-0-0-0---0-0-7h8p7p0-8h10p8p0-------12-------10------7h8p7p0-|
C|-0-0-0-0---0-0------------------0-0-0------0-0-----0-0---------|
   . . . .   . .                  . . .      . .     . .

D|-0----0----0----|
A|-6----6----6----|
F|-9----9----9----|
C|-0----0----0----|
G|-0----0----0----|
C|-0----0----0----|


Chorus


Fill
D|--------|
A|-6------|
F|-9b===r-|
C|--------|
G|--------|
C|--------|

D|---------------------1--0------0------1--0------0--------------------|
A|----6--5------5------------1-----1----------1-----1----6--5------5---|
F|----------5-----5-3-------(3)------2-------(2)---------------7-------|
C|-0-------(0)------3-------(3)------2-------(2)------5-------(5)------|
G|-0-------(0)------1-------(1)------0-------(0)------5-------(5)------|
C|-0-------(0)----------------------------------------5-------(5)------|

D|---------------------1--0------0------1--0------0--------------------|
A|----6--5------5------------1-----1----------1-----1----6--5------5---|
F|----------5-----5-3-------(3)------2-------(2)---------------7-------|
C|-0-------(0)------3-------(3)------2-------(2)------5-------(5)------|
G|-0-------(0)------1-------(1)------0-------(0)------5-------(5)------|
C|-0-------(0)----------------------------------------5-------(5)------|


D|-0----0----0===========================~-|
A|-6----6----6===========================~-|
F|-9----9----9===========================~-|
C|-0----0----0===========================~-|
G|-0----0----0===========================~-|
C|-0----0----0===========================~-|


==================================================================================================

Note: The chorus section originally uses two guitars. I have arranged both parts to be 
played by a single guitarist.

==================================================================================================
            
Tabs too difficult? Try these video lessons and learn fast.




comments powered by Disqus
↑ Back to top | Tablatures and chords are parodies/interpretations of the original songs. You may use it for private study, scholarship, research or language learning purposes only