» » »

36 Crazyfists, All Night Lights Tabs (ver.2)

Artists:  A B C D E F G H I J K L M N O P Q R S T U V W X Y Z # 

All Night Lights Tabs (ver.2)

36 Crazyfists Tabs
 Rating:
4.4/5 (7 votes)
All Night Lights lessons Tabs too difficult? Try these video lessons and learn fast
                ----------------------------------------------------------------------------
                   36 Crazyfists - The All Night Lights
----------------------------------------------------------------------------


Tuning: Drop C

Something along these lines, admittedly been very lazy putting it together 
but it is an amazing song so thought id get it out in some form or other
for all who wanna play it but don't know how. Cheers.

Intro
D|-------------------------------------------------------------------------|
A|-------------------------------------------------------------------------|
F|-------------------------------------------------------------------------|
C|-------------------------------------------------------------------------|
G|----7p0-----------8p0-7p0-5p0-7p0-----7p0----------10p0-8p0-7p0-8p0------|
C|-00-----10p0-8p0-------------------00-----10p0-8p0-----------------------|
   ..                                .. 

D|-------------------------------------------------------------------------|
A|-------------------------------------------------------------------------|
F|-------------------------------------------------------------------------|
C|--------------------------------------8p0-7p0-5p0----10p0-8p0-7p0--------|
G|----7p0-----------8p0-7p0-5p0-7p0----------------------------------------|
C|-00-----10p0-8p0-------------------00-------------00---------------------|
   ..                                ..             ..               

Verse Part 1
D|-------------------------------------------------------------------------|
A|-------------------------------------------------------------------------|
F|-------------------------------------------------------------------------|
C|-------------------------------------------------------0-0---------------|
G|-00---00--0000--0000----0-00---00---0000---0000---00-0-0-0---------------|
C|-00---00--0000--0000----0-00---00---0000---0000---00-0-0-0---------------|
   ..   ..  ....  ....    . ..   ..   ....   ....   .. . . .

Verse Part 2
D|-------------------------------------------------------------------------|
A|-------------------------------------------------------------------------|
F|-------------------------------------------------------------------------|
C|-------------------------------------------------------------------------|
G|-0-----------------------------------------------------------------------|
C|-0-0-0-0-0-0-0-0-0-0-0-3p0-3p0-0-0-0-0-0-0--0-3-5-0-10-8-7-0-------------|
     . . . . . . . . . .         . . . . . .  . . . . .  . . .

D|-------------------------------------------------------------------------|
A|-------------------------------------------------------------------------|
F|-------------------------------------------------------------------------|
C|-------------------------------------------------------------------------|
G|-----------------------------------------------------5h8p5--0------------|
C|-8-8-8-8-8-8-8-8-8-8-8-10p8-10p8-5-5-5-5-5-5-5h7-5-5--------0------------|
     . . . . . . . . . .           . . . . . .     . .        .

Chorus
D|-------------------------------------------------------------------------|
A|-------------------------------------------------------------------------|
F|-------------------------------------------------------------------------|
C|-00--0-0-------------------------00--0-0---------------------------------|
G|-00--0-0-12p0-10p0-8p0-10p0-7p0--00--0-0-12p0-10p0-8p0-10p0-12p0---------|
C|-00--0-0-------------------------00--0-0---------------------------------|
   ..  . .                         ..  . . 

D|-------------------------------------------------------------------------|
A|-------------------------------------------------------------------------|
F|-------------------------------------------------------------------------|
C|-88--8-8-------------------------77--7-7---------------------------------|
G|-88--8-8-12p0-10p0-8p0-7p0-10p0--77--7-7-12p0-10p0-8p0--7*---------------|
C|-88--8-8-------------------------77--7-7---------------------------------|
   ..  . .                         ..  . .

Bridge 
D|-------------------------------------------------------------------------|
A|-------------------------------------------------------------------------|
F|-------------------------------------------------------------------------|
C|-------------------------------------------------------------------------|
G|-00-00-00-00-000--00-00-00000-000--00-00-00-00-000--0--0--0--0--0--0-----|
C|-00-00-00-00-000--00-00-00000-000--00-00-00-00-000--0--0--0--0--0--0-----|
   .. .. .. .. ...  .. .. ..... ...  .. .. .. .. ...  .  .  .  .  .  .

Bridge
D|-------------------------------------------------------------------------|
A|----------------------------------------------------------13---11--15----|
F|-10---12--9------5----3--7------------------10----12--9---x----x---x-----|
C|-x----x---x------x----x--x--(tremelo pick)--x-----x---x---10---8---12----|
G|-8----10--7------3----1--5------------------8-----10--7------------------|
C|-------------------------------------------------------------------------|

Bridge Part 2 (clean)
D|-------------------------------------------------------------------------|
A|-------------------------------------------------------------------------|
F|-10----9-----10----10--9--------10-----9------12------10---9-------------|
C|-x-----x-----x-----x---x--(x3)--x------x------x-------x----x-------------|
G|-8-----7-----8-----8---7--------8------7------10------8----7-------------|
C|-------------------------------------------------------------------------|

Outro
D|-------------------------------------------------------------------------|
A|-------------------------------------------------------------------------|
F|-------------------------------------------------------------------------|
C|-00--0-0-------------------------00--0-0---------------------------------|
G|-00--0-0-12p0-10p0-8p0-10p0-7p0--00--0-0-12p0-10p0-8p0-10p0-12p0---------|
C|-00--0-0-------------------------00--0-0---------------------------------|
   ..  . .                         ..  . . 

D|-------------------------------------------------------------------------|
A|-------------------------------------------------------------------------|
F|-------------------------------------------------------------------------|
C|-88--8-8-------------------------77--7-7---------------------------------|
G|-88--8-8-12p0-10p0-8p0-7p0-10p0--77--7-7-12p0-10p0-8p0--7*---------------|
C|-88--8-8-------------------------77--7-7---------------------------------|
   ..  . .                         ..  . .

D|-------------------------------------------------------------------------|
A|-------------------------------------------------------------------------|
F|-------------------------------------------------------------------------|
C|-------------12----------------------------------------------------------|
G|-0-0---0-0---9-----------------------------------------------------------|
C|-0-0---0-0---9-----------------------------------------------------------|
   . .   . .


| /  slide up
| \  slide down
| h  hammer-on
| p  pull-off
| ~  vibrato
| *  Pinch harmonic
| x  Mute string
| .  Palm mute
| b  Bend note  
============================================================================
            
Submit corrections

comments powered by Disqus
↑ Back to top | 36 Crazyfists Tabs for All Night Lights. Lyrics for acoustic guitar and electric guitar. Tablatures and chords are parodies/interpretations of the original songs. You may use it for private study, scholarship, research or language learning purposes only