>
 >
Absent Are The Saints

Absent Are The Saints Guitar Tabs

36 Crazyfists - Absent Are The Saints chords, tabs, tablatures, lyrics

Guitar lessons | Add/correct | Request | Top 50 tabs Artists:  A B C D E F G H I J K L M N O P Q R S T U V W X Y Z 0-9

Absent Are The Saints Guitar Tabs – 36 Crazyfists

CD, Sheet music, Poster

Do you like Absent Are The Saints? Share with your friends now
Tabs
----------------------------------------------------------------------------
----------------------------------------------------------------------------


Tuning: Drop C


Intro
Both Guitars
D|-------------------------------------------------------------------------|
A|-------------------------------------------------------------------------|
F|-9/10-----9/10-----9/10---12---10----9-----------------------12---10---9-|
C|-x--x-----x--x-----x--x---x-----x----x-----------------------x-----x---x-|
G|-7/-8-----7/-8-----7/-8---10----8----7-7h8-----7h8-----7h8---10----8---7-|
C|------000------000------0----0-----0---8---888-8---888-8---0----0----0---|
        ...      ...      .    .     .       ...     ...     .    .    .

Both Guitars
D|-------------------------------------------------------------------------|
A|-------------------------------------------------------------------------|
F|-9/10-----9/10-----9/10---12---10----9-----------------------------------|
C|-x--x-----x--x-----x--x---x-----x----x------------------3-2-3-5----------|
G|-7/-8-----7/-8-----7/-8---10----8----7-7h8-----7h8------3-2-3-5----------|
C|------000------000------0----0-----0---8---888-8---888--3-2-3-5----------|
        ...      ...      .    .     .       ...     ...  

Both Guitars
D|-------------------------------------------------------------------------|
A|-------------------------------------------------------------------------|
F|-9/10-----9/10-----9/10---12---10----9-----------------------12---10---9-|
C|-x--x-----x--x-----x--x---x-----x----x-----------------------x-----x---x-|
G|-7/-8-----7/-8-----7/-8---10----8----7-7h8-----7h8-----7h8---10----8---7-|
C|------000------000------0----0-----0---8---888-8---888-8---0----0----0---|
        ...      ...      .    .     .       ...     ...     .    .    .

Both Guitars
D|-------------------------------------------------------------------------|
A|-------------------------------------------------------------------------|
F|-9/10-----9/10-----9/10---12---10----9-----------------------------------|
C|-x--x-----x--x-----x--x---x-----x----x------------------3--2--3--5--3--2-|
G|-7/-8-----7/-8-----7/-8---10----8----7-7h8-----7h8------3--2--3--5--3--2-|
C|------000------000------0----0-----0---8---888-8---888--3--2--3--5--3--2-|
        ...      ...      .    .     .       ...     ...        


Verse 1
Both Guitars
D|-------------------------------------------------------------------------|
A|-------------------------------------------------------------------------|
F|-------------------------------------------------------------------------|
C|-------------------------------------------------------------------3-----|
G|-------------------------------------------------------------------3-----|
C|-0-0-0-0-000-0-0-8p00-0-7p00-0-5p00-0-0-0-0-000-0-0-8p00-0-7p00-0--3-----|
   . . . . ... . . . .. . . .. . . .. . . . . ... . . . .. . . .. .

Both Guitars
D|-------------------------------------------------------------------------|
A|-------------------------------------------------------------------------|
F|-------------------------------------------------------------------------|
C|-----------------------------------------------------3-3-3-5--2-2--------|
G|-----------------------------------------------------3-3-3-5--2-2--------|
C|-000-0-0-000-0-0-8p00-0-7p00-0-5p00-0-0-0-0-000-0-0--3-3-3-5--2-2--------|
   ... . . ... . . . .. . . .. . . .. . . . . ... . . 

Both Guitars
D|-------------------------------------------------------------------------|
A|-------------------------------------------------------------------------|
F|-------------------------------------------------------------------------|
C|-------------------------------------------------------------------3--0~-|
G|-------------------------------------------------------------------3--0~-|
C|-0-0-0-0-000-0-0-8p00-0-7p00-0-5p00-0-0-0-0-000-0-0-8p00-0-7p00-0--3--0~-|
   . . . . ... . . . .. . . .. . . .. . . . . ... . . . .. . . .. .     .

Both Guitars
D|-------------------------------------------------------------------------|
A|-------------------------------------------------------------------------|
F|-------------------------------------------------------------------------|
C|---------------------------------------------3-3-3-5--2-2----------------|
G|---------------------------------------------3-3-3-5--2-2----------------|
C|-000-0-0-8p00-0-7p00-0-5p00-0-0-0-0-000-0-0--3-3-3-5--2-2----------------|
   ... . . . .. . . .. . . .. . . . . ... . . 


Pre-chorus
Guitar 1
D|-------------------------------------------------------------------------|
A|-------------------------------------------------------------------------|
F|-------------------------------------------------------------------------|
C|-------------------------------------------------------------------------|
G|-------------------------------------------------------------------------|
C|-3-0-0-0--3-0-0-0---3-0-3-5-0-5h6--3-0-0-0--3-0-0-0--3-0-3--6-5-3--------|

Both Guitars
D|-------------------------------------------------------------------------|
A|-------------------------------------------------------------------------|
F|-------------------------------------------------------------------------|
C|-------------------------------------------------------------------------|
G|-------------------------------------------------------------------------|
C|-3-0-0-0--3-0-0-0---3-0-3-5-0-5h6--3-0-0-0--3-0-0-0--x-6--5--3--0--------|

Both Guitars
D|-------------------------------------------------------------------------|
A|-------------------------------------------------------------------------|
F|-------------------------------------------------------------------------|
C|-------------------------------------------------------------------------|
G|-------------------------------------------------------------------------|
C|-3-0-0-0--3-0-0-0---3-0-3-5-0-5h6--3-0-0-0--3-0-0-0--x-6--5--3--0--------|


Chorus
Guitar 1
D|-------------------------------------------------------------------------|
A|-------------------------------------------------------------------------|
F|-------------------------------------------------------------------------|
C|-/8--7-------------------------------------------------------------------|
G|--------8----------------------------------------------------------------|
C|-------------------------------------------------------------------------|

Guitar 1
D|-------------------------------------------------------------------------|
A|-------------------------------------------------------------------------|
F|-------------------------------------------------------------------------|
C|-8--7-----8--7-----10--8--7-8--7-----8--7-----8--7-----10--8--7-8--7-----|
G|-------8--------8-----------------8--------8--------8-----------------8--|
C|-------------------------------------------------------------------------|

Guitar 2
D|-------------------------------------------------------------------------|
A|-------------------------------------------------------------------------|
F|-------------------------------------------------------------------------|
C|-1-----------------0-----------------1-----------------5-------3---------|
G|-1-----------------0-----------------1-----------------5-------3---------|
C|-1-----------------0-----------------1-----------------5-------3---------|

Guitar 1
D|-------------------------------------------------------------------------|
A|-------------------------------------------------------------------------|
F|-------------------------------------------------------------------------|
C|-8--7-----8--7-----10--8--7-8--7-----8--7-----8--7-----10--8--7-8--7-----|
G|-------8--------8-----------------8--------8--------8-----------------8--|
C|-------------------------------------------------------------------------|

Guitar 2
D|-------------------------------------------------------------------------|
A|-------------------------------------------------------------------------|
F|-------------------------------------------------------------------------|
C|-1-----------------0-----------------1-----------------5-------3---------|
G|-1-----------------0-----------------1-----------------5-------3---------|
C|-1-----------------0-----------------1-----------------5-------3---------|

Guitar 1
D|-------------------------------------------------------------------------|
A|-------------------------------------------------------------------------|
F|-------------------------------------------------------------------------|
C|-------------------------------------------------------------------------|
G|-------------------------------------------------------------------------|
C|-0-0-0-0--000------------------------------------------------------------|
   . . . .  ...


Verse 2
Both Guitars
D|-------------------------------------------------------------------------|
A|-------------------------------------------------------------------------|
F|-------------------------------------------------------------------------|
C|-------------------------------------------------------------------3-----|
G|-------------------------------------------------------------------3-----|
C|-0-0-0-0-000-0-0-8p00-0-7p00-0-5p00-0-0-0-0-000-0-0-8p00-0-7p00-0--3-----|
   . . . . ... . . . .. . . .. . . .. . . . . ... . . . .. . . .. .

Both Guitars
D|-------------------------------------------------------------------------|
A|-------------------------------------------------------------------------|
F|-------------------------------------------------------------------------|
C|-----------------------------------------------------3-3-3-5--2-2--------|
G|-----------------------------------------------------3-3-3-5--2-2--------|
C|-000-0-0-000-0-0-8p00-0-7p00-0-5p00-0-0-0-0-000-0-0--3-3-3-5--2-2--------|
   ... . . ... . . . .. . . .. . . .. . . . . ... . . 

Both Guitars
D|-------------------------------------------------------------------------|
A|-------------------------------------------------------------------------|
F|-------------------------------------------------------------------------|
C|-------------------------------------------------------------------3--0~-|
G|-------------------------------------------------------------------3--0~-|
C|-0-0-0-0-000-0-0-8p00-0-7p00-0-5p00-0-0-0-0-000-0-0-8p00-0-7p00-0--3--0~-|
   . . . . ... . . . .. . . .. . . .. . . . . ... . . . .. . . .. .     .

Both Guitars
D|-------------------------------------------------------------------------|
A|-------------------------------------------------------------------------|
F|-------------------------------------------------------------------------|
C|---------------------------------------------3-3-3-5--2-2----------------|
G|---------------------------------------------3-3-3-5--2-2----------------|
C|-000-0-0-8p00-0-7p00-0-5p00-0-0-0-0-000-0-0--3-3-3-5--2-2----------------|
   ... . . . .. . . .. . . .. . . . . ... . . 


Pre-chorus
Guitar 1
D|-------------------------------------------------------------------------|
A|-------------------------------------------------------------------------|
F|-------------------------------------------------------------------------|
C|-------------------------------------------------------------------------|
G|-------------------------------------------------------------------------|
C|-3-0-0-0--3-0-0-0---3-0-3-5-0-5h6--3-0-0-0--3-0-0-0--3-0-3--6-5-3--------|

Both Guitars
D|-------------------------------------------------------------------------|
A|-------------------------------------------------------------------------|
F|-------------------------------------------------------------------------|
C|-------------------------------------------------------------------------|
G|-------------------------------------------------------------------------|
C|-3-0-0-0--3-0-0-0---3-0-3-5-0-5h6--3-0-0-0--3-0-0-0--x-6--5--3--0--------|

Both Guitars
D|-------------------------------------------------------------------------|
A|-------------------------------------------------------------------------|
F|-------------------------------------------------------------------------|
C|-------------------------------------------------------------------------|
G|-------------------------------------------------------------------------|
C|-3-0-0-0--3-0-0-0---3-0-3-5-0-5h6--3-0-0-0--3-0-0-0--x-6--5--3--0--------|


Chorus
Guitar 1
D|-------------------------------------------------------------------------|
A|-------------------------------------------------------------------------|
F|-------------------------------------------------------------------------|
C|-/8--7-------------------------------------------------------------------|
G|--------8----------------------------------------------------------------|
C|-------------------------------------------------------------------------|

Guitar 1
D|-------------------------------------------------------------------------|
A|-------------------------------------------------------------------------|
F|-------------------------------------------------------------------------|
C|-8--7-----8--7-----10--8--7-8--7-----8--7-----8--7-----10--8--7-8--7-----|
G|-------8--------8-----------------8--------8--------8-----------------8--|
C|-------------------------------------------------------------------------|

Guitar 2
D|-------------------------------------------------------------------------|
A|-------------------------------------------------------------------------|
F|-------------------------------------------------------------------------|
C|-1-----------------0-----------------1-----------------5-------3---------|
G|-1-----------------0-----------------1-----------------5-------3---------|
C|-1-----------------0-----------------1-----------------5-------3---------|

Guitar 1
D|-------------------------------------------------------------------------|
A|-------------------------------------------------------------------------|
F|-------------------------------------------------------------------------|
C|-8--7-----8--7-----10--8--7-8--7-----8--7-----8--7-----10--8--7-8--7-----|
G|-------8--------8-----------------8--------8--------8-----------------8--|
C|-------------------------------------------------------------------------|

Guitar 2
D|-------------------------------------------------------------------------|
A|-------------------------------------------------------------------------|
F|-------------------------------------------------------------------------|
C|-1-----------------0-----------------1-----------------5-------8--7--3---|
G|-1-----------------0-----------------1-----------------5-------8--7--3---|
C|-1-----------------0-----------------1-----------------5-------8--7--3---|


Bridge
Both Guitars
D|-------------------------------------------------------------------------|
A|-------------------------------------------------------------------------|
F|-------------------------------------------------------------------------|
C|-0-0------3-----3-----5-----5-----7-----7*----8-8-8-7--7--3-3-3----------|
G|-0-0----1-----1-----3-----3-----5-----5-------8-8-8-7--7--3-3-3----------|
C|-0-0--0-----0-----0-----0-----0-----0---------8-8-8-7--7--3-3-3----------|
        . .   . .   . .   . .   . .   . .      

Guitar 1
D|-------------------------------------------------------------------------|
A|-------------------------------------------------------------------------|
F|-------------------------------------------------------------------------|
C|-0-0-0------3-----3-----5-----5-----7-----7*----8-8-8-7--7--3-3-3--------|
G|-0-0-0----1-----1-----3-----3-----5-----5-------8-8-8-7--7--3-3-3--------|
C|-0-0-0--0-----0-----0-----0-----0-----0---------8-8-8-7--7--3-3-3--------|
          . .   . .   . .   . .   . .   . .      

Guitar 2
D|-------------------------------------------------------------------------|
A|-------------------------------------------------------------------------|
F|------------2-----2-----3-----3-----5-----5*-----------------------------|
C|-0-0-0------------------------------------------8-8-8-7--7--3-3-3--------|
G|-0-0-0----1-----1-----3-----3-----5-----5-------8-8-8-7--7--3-3-3--------|
C|-0-0-0--0-----0-----0-----0-----0-----0---------8-8-8-7--7--3-3-3--------|
          . .   . .   . .   . .   . .   . .      

Both Guitars
D|-------------------------------------------------------------------------|
A|-------------------------------------------------------------------------|
F|-------------------------------------------------------------------------|
C|-0-0------3-----3-----5-----5-----7-----7*----8-8-8-7--7--3-3-3----------|
G|-0-0----1-----1-----3-----3-----5-----5-------8-8-8-7--7--3-3-3----------|
C|-0-0--0-----0-----0-----0-----0-----0---------8-8-8-7--7--3-3-3----------|
        . .   . .   . .   . .   . .   . .      

Guitar 1
D|-------------------------------------------------------------------------|
A|-------------------------------------------------------------------------|
F|-------------------------------------------------------------------------|
C|-0-0-0------3-----3-----5-----5-----7-----7*----8-8-8-7--7--3-3-3--------|
G|-0-0-0----1-----1-----3-----3-----5-----5-------8-8-8-7--7--3-3-3--------|
C|-0-0-0--0-----0-----0-----0-----0-----0---------8-8-8-7--7--3-3-3--------|
          . .   . .   . .   . .   . .   . .      

Guitar 2
D|-------------------------------------------------------------------------|
A|-------------------------------------------------------------------------|
F|------------2-----2-----3-----3-----5-----5*-----------------------------|
C|-0-0-0------------------------------------------8-8-8-7--7--3-3-3--------|
G|-0-0-0----1-----1-----3-----3-----5-----5-------8-8-8-7--7--3-3-3--------|
C|-0-0-0--0-----0-----0-----0-----0-----0---------8-8-8-7--7--3-3-3--------|
          . .   . .   . .   . .   . .   . .      


Guitar 2
D|-------------------------------------------------------------------------|
A|-------------------------------------------------------------------------|
F|-------------------------------------------------------------------------|
C|-1~---------------------------------1---------------------8--7--3--------|
G|-1~---------------------------------1---------------------8--7--3--------|
C|-1~---------------------------------1---------------------8--7--3--------|


Chorus
Guitar 1
D|-------------------------------------------------------------------------|
A|-------------------------------------------------------------------------|
F|-------------------------------------------------------------------------|
C|---------------------------------------------------------/8--7-----------|
G|----------------------------------------------------------------8--------|
C|-------------------------------------------------------------------------|

Guitar 1
D|-------------------------------------------------------------------------|
A|-------------------------------------------------------------------------|
F|-------------------------------------------------------------------------|
C|-8--7-----8--7-----10--8--7-8--7-----8--7-----8--7-----10--8--7-8--7-----|
G|-------8--------8-----------------8--------8--------8-----------------8--|
C|-------------------------------------------------------------------------|

Guitar 2
D|-------------------------------------------------------------------------|
A|-------------------------------------------------------------------------|
F|-------------------------------------------------------------------------|
C|-1-----------------0-----------------1-----------------5-------3---------|
G|-1-----------------0-----------------1-----------------5-------3---------|
C|-1-----------------0-----------------1-----------------5-------3---------|

Guitar 1
D|-------------------------------------------------------------------------|
A|-------------------------------------------------------------------------|
F|-------------------------------------------------------------------------|
C|-8--7-----8--7-----10--8--7-8--7-----8--7-----8--7-----10--8--7-8--7-----|
G|-------8--------8-----------------8--------8--------8-----------------8--|
C|-------------------------------------------------------------------------|

Guitar 2
D|-------------------------------------------------------------------------|
A|-------------------------------------------------------------------------|
F|-------------------------------------------------------------------------|
C|-1-----------------0-----------------1-----------------5-------3---------|
G|-1-----------------0-----------------1-----------------5-------3---------|
C|-1-----------------0-----------------1-----------------5-------3---------|


Guitar 1
D|-------------------------------------------------------------------------|
A|-------------------------------------------------------------------------|
F|-------------------------------------------------------------------------|
C|-1-1-1-1-1--1-1-1-1-1--1-1-1---0-0-0-0-0--0-0-0-0-0--0-0-0---------------|
G|-1-1-1-1-1--1-1-1-1-1--1-1-1---0-0-0-0-0--0-0-0-0-0--0-0-0---------------|
C|-1-1-1-1-1--1-1-1-1-1--1-1-1---0-0-0-0-0--0-0-0-0-0--0-0-0---------------|

Guitar 2
D|-------------------------------------------------------------------------|
A|-11---------11---------13------10---------10---------6-------------------|
F|--x-(x5)-----x-(x5)-----x-(x3)--x-(x5)-----x-(x5)----x-(x3)--------------|
C|--8----------8---------10-------7----------7---------3-------------------|
G|-------------------------------------------------------------------------|
C|-------------------------------------------------------------------------|

Guitar 1
D|-------------------------------------------------------------------------|
A|-------------------------------------------------------------------------|
F|-------------------------------------------------------------------------|
C|-1-1-1-1-1--1-1-1-1-1--1-1-1---5-5-5-5---3-3-3-3--3-3-3------------------|
G|-1-1-1-1-1--1-1-1-1-1--1-1-1---5-5-5-5---3-3-3-3--3-3-3------------------|
C|-1-1-1-1-1--1-1-1-1-1--1-1-1---5-5-5-5---3-3-3-3--3-3-3------------------|

Guitar 2
D|-------------------------------------------------------------------------|
A|-11---------11---------11------------------------------------------------|
F|--x-(x5)-----x-(x5)-----x-(x3)-------------------------------------------|
C|--8----------8----------8------------------------------------------------|
G|-------------------------------------------------------------------------|
C|-------------------------------------------------------------------------|


Both Guitars
D|-------------------------------------------------------------------------|
A|-------------------------------------------------------------------------|
F|-------------------------------------------------------------------------|
C|-0-0------3-----3-----5-----5-----7-----7*----8-8-8-7--7--3-3-3----------|
G|-0-0----1-----1-----3-----3-----5-----5-------8-8-8-7--7--3-3-3----------|
C|-0-0--0-----0-----0-----0-----0-----0---------8-8-8-7--7--3-3-3----------|
        . .   . .   . .   . .   . .   . .      

Guitar 1
D|-------------------------------------------------------------------------|
A|-------------------------------------------------------------------------|
F|-------------------------------------------------------------------------|
C|-0-0-0------3-----3-----5-----5-----7-----7*----8-8-8-7--7--3-3-3--------|
G|-0-0-0----1-----1-----3-----3-----5-----5-------8-8-8-7--7--3-3-3--------|
C|-0-0-0--0-----0-----0-----0-----0-----0---------8-8-8-7--7--3-3-3--------|
          . .   . .   . .   . .   . .   . .      

Guitar 2
D|-------------------------------------------------------------------------|
A|-------------------------------------------------------------------------|
F|------------2-----2-----3-----3-----5-----5*-----------------------------|
C|-0-0-0------------------------------------------8-8-8-7--7--3-3-3--------|
G|-0-0-0----1-----1-----3-----3-----5-----5-------8-8-8-7--7--3-3-3--------|
C|-0-0-0--0-----0-----0-----0-----0-----0---------8-8-8-7--7--3-3-3--------|
          . .   . .   . .   . .   . .   . . 

Both Guitars
D|-------------------------------------------------------------------------|
A|-------------------------------------------------------------------------|
F|-------------------------------------------------------------------------|
C|-0-0------3-----3-----5-----5-----7-----7*----8-8-8-7--7--3-3-3----------|
G|-0-0----1-----1-----3-----3-----5-----5-------8-8-8-7--7--3-3-3----------|
C|-0-0--0-----0-----0-----0-----0-----0---------8-8-8-7--7--3-3-3----------|
        . .   . .   . .   . .   . .   . .      

Guitar 1
D|-------------------------------------------------------------------------|
A|-------------------------------------------------------------------------|
F|-------------------------------------------------------------------------|
C|-0-0-0------3-----3-----5-----5-----7-----7*----8-8-8-7--7--3-3-3--------|
G|-0-0-0----1-----1-----3-----3-----5-----5-------8-8-8-7--7--3-3-3--------|
C|-0-0-0--0-----0-----0-----0-----0-----0---------8-8-8-7--7--3-3-3--------|
          . .   . .   . .   . .   . .   . .      

Guitar 2
D|-------------------------------------------------------------------------|
A|-------------------------------------------------------------------------|
F|------------2-----2-----3-----3-----5-----5*-----------------------------|
C|-0-0-0------------------------------------------8-8-8-7--7--3-3-3--------|
G|-0-0-0----1-----1-----3-----3-----5-----5-------8-8-8-7--7--3-3-3--------|
C|-0-0-0--0-----0-----0-----0-----0-----0---------8-8-8-7--7--3-3-3--------|
          . .   . .   . .   . .   . .   . .

Both Guitars
D|-------------------------------------------------------------------------|
A|-------------------------------------------------------------------------|
F|-------------------------------------------------------------------------|
C|-0-0---------------------------------------------------------------------|
G|-0-0---------------------------------------------------------------------|
C|-0-0---------------------------------------------------------------------|



| /  slide up
| \  slide down
| h  hammer-on
| p  pull-off
| ~  Let ring
| *  Pinch harmonic
| x  Mute string
| .  Palm mute
| b  Bend note  
============================================================================





Comments


Popular 36 Crazyfists tabs & chords
Left Hand Charity Bass Tabs
All Night Lights Tabs
Aurora 1 Tabs
Bloodwork Tabs
Destroy The Map Intro 1 Tabs
Felt Through A Phone Line Tabs
Slit Wrist Theory Tabs
The Heart And The Shape 2 Tabs
Two Months From A Year 1 Tabs
When Distance Is The Closest Reminder Intro Tabs


Song lyrics



↑ Back to top | Tablatures and chords are parodies/interpretations of the original songs. You may use it for private study, scholarship, research or language learning purposes only
© 2014 AZChords.com Contact us | Privacy policy | DMCA | Add/correct tabs | Request tabs | Top 50 tabs