» » »

36 Crazy Fists, Two Months From A Year Bass tabs (ver.1)

Artists:  A B C D E F G H I J K L M N O P Q R S T U V W X Y Z # 

Two Months From A Year Bass tabs (ver.1)

36 Crazy Fists Tabs
 Rating:
4/5 (4 votes)
Two Months From A Year lessons Tabs too difficult? Try these video lessons and learn fast
                36 Crazyfists 
Bitterness The Star

Tuning C G C F

Requested by Sam, another 36 Crazyfists lover, Rock on!

Verse: x6

|-------------------------------------|
|-------------------------------------|
|------5--------5--------5------------|
|-5555---555555---555555---55-5/7-1/6-|
 

Pre-Chorus: x2
 
|-------------------------------------|
|-------------------------------------|
|----55----55/666\3----55----55/666/8-|
|-00----00----------00----00----------|      


Chorus: x2

|-------------------|
|-------------------|
|-------------------|
|-3--2~-----3-2--0~-|


Verse: x6

Pre-chorus: x2

Chorus: x2


Interlude/Bass solo: x1
|-----------------------------------------------------|
|-----------------------------------------------------|
|------5-2--------1----1h3\1---------------1----------|
|--5-5-----3~--1-1—--1----------5-5~---1-1---1—-3-2-0-|

|-----------------------------------------------------|
|-----------------------------------------------------|
|------5-2--------1----1h3\1----------------1---------|
|--5-5-----3~--1-1—--1----------5~------1-1---1~------|

Verse: x2

Pre-chorus: x2

Interlude: x2

|-------------------------------------------------------|
|-------------------------------------------------------|
|--------5---5-----55/666\3--------5---5-----55/666/8---|
|--00000—-00--00-------------00000—-00—-00--------------|

 
Chorus: x4


Chorus Variation: x4

|-------------------------------------|
|-------------------------------------|
|-------------------------------------|
|--3—-2-2-22222222----3—-2-0-00000000-|


Another interlude: x4

|------------------------------------|
|------------------------------------|
|------------------------------------|
|--3—-2-00000000----3—-2-0-00000000--|


Outro: x1

|----------|
|----------|
|----------|
|-3--2~~~~-|
 


Thank you please rate this really cool song
            
Submit corrections

comments powered by Disqus
↑ Back to top | 36 Crazy Fists Bass for Two Months From A Year. Lyrics for acoustic guitar and electric guitar. Tablatures and chords are parodies/interpretations of the original songs. You may use it for private study, scholarship, research or language learning purposes only