>
 >
The All Night Lights

The All Night Lights Guitar Tabs

36 Crazy Fists - The All Night Lights chords, tabs, tablatures, lyrics

Guitar lessons | Add/correct | Request | Top 50 tabs Artists:  A B C D E F G H I J K L M N O P Q R S T U V W X Y Z 0-9

The All Night Lights Guitar Tabs – 36 Crazy Fists

CD, Sheet music, Poster

Do you like The All Night Lights? Share with your friends now
Tabs
36 Crazyfists
The Tide And Its Takers
Drop C- CGCFAD


-Intro-
Gtr 1- Distortion
D|--------------------------------------------------------------|
A|--------------------------------------------------------------|
F|--------------------------------------------------------------|
C|--------------------------------------------------------------|
G|-----7p0-3p0-----8p0-7p0-5p0-7-----7p0-3p0-----10p0-8p0-7p0-8-|
C|-0-0---------5p0---------------0-0---------5p0----------------|
   pm-                           - -
Gtr 2- Distortion
D|--------------------------------------------------------------|
A|--------------------------------------------------------------|
F|--------------------------------------------------------------|
C|--------------------------------------------------------------|
G|-0-0---------------------------0-0----------------------------|
C|-0-0---------------------------0-0----------------------------|
   pm-                           - -

Gtr 1
D|------------------------------------------------------------|
A|------------------------------------------------------------|
F|------------------------------------------------------------|
C|---------------------------------8p0-7p0-5p0---10p0-8p0-7p0-|
G|----7p0-3p0-----8p0-7p0-5p0-7-------------------------------|
C|-0-0--------5p0----------------0-------------0--------------|
   - -                           -             -
Gtr 2
D|------------------------------------------------------------|
A|------------------------------------------------------------|
F|------------------------------------------------------------|
C|-3~~~~~~~~~~~~~~~~~~~~~~~~~~~~-----------------10p0-8p0-7p0-|
G|-3~~~~~~~~~~~~~~~~~~~~~~~~~~~~-0-0--------------------------|
C|-3~~~~~~~~~~~~~~~~~~~~~~~~~~~~-0-0-----------0--------------|
                                 - -           -

Gtr 1,2
D|--------------------------------------------------------------|
A|--------------------------------------------------------------|
F|--------------------------------------------------------------|
C|--------------------------------------------------------------|
G|-----7p0-3p0-----8p0-7p0-5p0-7-----7p0-3p0-----10p0-8p0-7p0-8-|
C|-0-0---------5p0---------------0-0---------5p0----------------|
   - -                           - -
"YEEEEEEEEEEEEEAAAAAAAAAAAAAAAAAAAAAHHHHHHHHHHHHH--
D|------------------------------------------------------------|
A|------------------------------------------------------------|
F|------------------------------------------------------------|
C|---------------------------------8p0-7p0-5p0---10p0-8p0-7p0-|
G|----7p0-3p0-----8p0-7p0-5p0-7-------------------------------|
C|-0-0--------5p0----------------0-------------0--------------|
   - -                           -             -
OOOOOHHHHHHHHHHHHHHHHHHH!!!"


-Verse-
D|--------------------------------------------------------------------------|
A|--------------------------------------------------------------------------|
F|--------------------------------------------------------------------------|
C|--------------------------------------------------------------------------|
G|-0---0--0-0-0-0--0-0-0-0----0--0-0---0-0---0-0-0-0--0-0-0-0---0-0--0-0--0-|
C|-0---0--0-0-0-0--0-0-0-0----0--0-0---0-0---0-0-0-0--0-0-0-0---0-0--0-0--0-|
   -   -  - - - -  - - - -    -  - -   - -   - - - -  - - - -   - -  - -  -
"FOREVER! WE'LL GO OUT INTO THE NIGHT, WITH SURVIVAL IN ALL OUR EYES!!"

Gtr 1
D|--------------------------------------------------------------|
A|--------------------------------------------------------------|
F|--------------------------------------------------------------|
C|--------------------------------------------------------------|
G|-----7p0-3p0-----8p0-7p0-5p0-7-----7p0-3p0-----10p0-8p0-7p0-8-|
C|-0-0---------5p0---------------0-0---------5p0----------------|
   - -                           - -
D|---------------------------------------------|
A|---------------------------------------------|
F|---------------------------------------------|
C|---------------------------------8p0-7p0-5p0-|
G|----7p0-3p0-----8p0-7p0-5p0-7----------------|
C|-0-0--------5p0----------------0-------------|
   - -                           -
Gtr 2
D|--------------------------------------------------------------------------|
A|--------------------------------------------------------------------------|
F|--------------------------------------------------------------------------|
C|--------------------------------------------------------------------------|
G|-0---0--0-0-0-0--0-0-0-0----0--0-0---0-0---0-0-0-0--0-0-0-0---0-0--0-0--0-|
C|-0---0--0-0-0-0--0-0-0-0----0--0-0---0-0---0-0-0-0--0-0-0-0---0-0--0-0--0-|
   -   -  - - - -  - - - -    -  - -   - -   - - - -  - - - -   - -  - -  -
"With knives in hand, we stab at the sands of time, to turn back and.."

Gtr 1,2
D||------------------------------------------------------|
A||o-----------------------------------------------------|
F||------------------------------------------------------|
C||------------------------------------------------------|
G||o-0---------------------------------------------3h5p0-|
C||--0-0-0-0-0-0-0-0-0-0-0-5p0-3p0-0-0-0-0-0-0-3h5-------|
       - - - - - - - - - -         - - - - - - -   -
D|--------------------------------------------------------||
A|-------------------------------------------------------o||
F|--------------------------------------------------------||
C|--------------------------------------------------------||
G|-3-----------------------------------------------5h8p5-o||
C|-3-3-3-3-3-3-3-3-3-3-5p3-7p5-5-5-5-5-5-5-5-5h7p5--------||
     - - - - - - - - -         - - - - - - - -     -
"Under the death of an age, we were becomin, stronger than.."
"WITH TERROR IN OUR EYES! WE WAIT ON THESE SKIES! TO BRING! A NEW! CHAPTER!!"


-Chorus-
D||--------------------------------------------------------------------|
A||o-------------------------------------------------------------------|
F||--------------------------------------------------------------------|
C||--0-0--0-0--------------------------0-0--0-0------------------------|
G||o-0-0--0-0--12p0-10p0-8p0-10p0-7p0--0-0--0-0--12p0-10p0-8p0-10p0-12-|
C||--0-0--0-0--------------------------0-0--0-0------------------------|
     - -  - -                          - -  - -
Gtr 2 (comes in on 2nd time)
D|---------------------------------------------------------------------|
A|---------------------------------------------------------------------|
F|---------------------------------------------------------------------|
C|---0-0--0-0--7p0--5p0--3p0-5p0--2p0--0-0--0-0--7p0--5p0--3p0--5p0--7-|
G|---0-0--0-0--------------------------0-0--0-0------------------------|
C|---0-0--0-0--------------------------0-0--0-0------------------------|
     - -  - -                          - -  - -
"I've seen... Life through death... "And these eyes... On survive...

Gtr 1
D|--------------------------------------------------------------||
A|-------------------------------------------------------------o||
F|--------------------------------------------------------------||
C|-8-8--8-8------------------------7-7--7-7---------------------||
G|-8-8--8-8--12p0-10p0-8p0-7p0-10--7-7--7-7--12p0-10p0-8p0-7*~-o||
C|-8-8--8-8------------------------7-7--7-7---------------------||
   - -  - -                        - -  - -
Gtr 2
D|--------------------------------------------------------------|
A|--------------------------------------------------------------|
F|--------------------------------------------------------------|
C|-8-8--8-8--7p0--5p0--3p0-2p0-5---7-7--7-7--7p0--5p0--3p0--2*~-|
G|-8-8--8-8------------------------7-7--7-7---------------------|
C|-8-8--8-8------------------------7-7--7-7---------------------|
   - -  - -                        - -  - -
Under the weight of it all, we all collapse"
We will come from the fall, AND THE"

Gtr 1
D|------------------------------|
A|------------------------------|
F|------------------------------|
C|---8p0-7p0-5p0---10p0-8p0-7p0-|
G|------------------------------|
C|-0-------------0--------------|
   -             -
"RISE!!!!"


-Verse-
Gtr 1,2
D|--------------------------------------------------------------------------|
A|--------------------------------------------------------------------------|
F|--------------------------------------------------------------------------|
C|--------------------------------------------------------------------------|
G|-0---0--0-0-0-0--0-0-0-0----0--0-0---0-0---0-0-0-0--0-0-0-0---0-0--0-0--0-|
C|-0---0--0-0-0-0--0-0-0-0----0--0-0---0-0---0-0-0-0--0-0-0-0---0-0--0-0--0-|
   -   -  - - - -  - - - -    -  - -   - -   - - - -  - - - -   - -  - -  -
"LIKE LIONS, WE TOW THE LINE! BLOOD SEWN PACT! WITH TRUE INSIDE!!"

Gtr 1
D|--------------------------------------------------------------|
A|--------------------------------------------------------------|
F|--------------------------------------------------------------|
C|--------------------------------------------------------------|
G|-----7p0-3p0-----8p0-7p0-5p0-7-----7p0-3p0-----10p0-8p0-7p0-8-|
C|-0-0---------5p0---------------0-0---------5p0----------------|
   - -                           - -
D|---------------------------------------------|
A|---------------------------------------------|
F|---------------------------------------------|
C|---------------------------------8p0-7p0-5p0-|
G|----7p0-3p0-----8p0-7p0-5p0-7----------------|
C|-0-0--------5p0----------------0-------------|
   - -                           -
Gtr 2
D|--------------------------------------------------------------------------|
A|--------------------------------------------------------------------------|
F|--------------------------------------------------------------------------|
C|--------------------------------------------------------------------------|
G|-0---0--0-0-0-0--0-0-0-0----0--0-0---0-0---0-0-0-0--0-0-0-0---0-0--0-0--0-|
C|-0---0--0-0-0-0--0-0-0-0----0--0-0---0-0---0-0-0-0--0-0-0-0---0-0--0-0--0-|
   -   -  - - - -  - - - -    -  - -   - -   - - - -  - - - -   - -  - -  -
"With knives in hand, we stab at the sands of time, to turn back and.."

Gtr 1,2
D||------------------------------------------------------|
A||o-----------------------------------------------------|
F||------------------------------------------------------|
C||------------------------------------------------------|
G||o-0---------------------------------------------3h5p0-|
C||--0-0-0-0-0-0-0-0-0-0-0-5p0-3p0-0-0-0-0-0-0-3h5-------|
       - - - - - - - - - -         - - - - - - -   -
D|--------------------------------------------------------||
A|-------------------------------------------------------o||
F|--------------------------------------------------------||
C|--------------------------------------------------------||
G|-3-----------------------------------------------5h8p5-o||
C|-3-3-3-3-3-3-3-3-3-3-5p3-7p5-5-5-5-5-5-5-5-5h7p5--------||
     - - - - - - - - -         - - - - - - - -     -
"Under the death of an age, we were becomin, stronger than.."
"WITH TERROR IN OUR EYES! WE WAIT ON THESE SKIES! TO BRING! A NEW! CHAPTER!!"

-Chorus-
D||--------------------------------------------------------------------|
A||o-------------------------------------------------------------------|
F||--------------------------------------------------------------------|
C||--0-0--0-0--------------------------0-0--0-0------------------------|
G||o-0-0--0-0--12p0-10p0-8p0-10p0-7p0--0-0--0-0--12p0-10p0-8p0-10p0-12-|
C||--0-0--0-0--------------------------0-0--0-0------------------------|
     - -  - -                          - -  - -
Gtr 2 (comes in on 2nd time)
D|---------------------------------------------------------------------|
A|---------------------------------------------------------------------|
F|---------------------------------------------------------------------|
C|---0-0--0-0--7p0--5p0--3p0-5p0--2p0--0-0--0-0--7p0--5p0--3p0--5p0--7-|
G|---0-0--0-0--------------------------0-0--0-0------------------------|
C|---0-0--0-0--------------------------0-0--0-0------------------------|
     - -  - -                          - -  - -
"I've seen... Life through death... "And these eyes... On survive...

Gtr 1                                                 1st ending  2nd
D|--------------------------------------------------------------||------|
A|-------------------------------------------------------------o||------|
F|--------------------------------------------------------------||------|
C|-8-8--8-8------------------------7-7--7-7---------------------||-/12\-|
G|-8-8--8-8--12p0-10p0-8p0-7p0-10--7-7--7-7--12p0-10p0-8p0-7*~-o||-/12\-|
C|-8-8--8-8------------------------7-7--7-7---------------------||-/12\-|
   - -  - -                        - -  - -
Gtr 2
D|---------------------------------------------------------------|
A|---------------------------------------------------------------|
F|---------------------------------------------------------------|
C|-8-8--8-8--7p0--5p0--3p0-2p0-5---7-7--7-7--7p0--5p0--3p0--/12\-|
G|-8-8--8-8------------------------7-7--7-7-----------------/12\-|
C|-8-8--8-8------------------------7-7--7-7-----------------/12\-|
   - -  - -                        - -  - -
Under the weight of it all, we all collapse"
We will come from the fall, AND THE"


-Breakdown-
D|-------------------------------------------------------|
A|-------------------------------------------------------|
F|-------------------------------------------------------|
C|-------------------------------------------------------|
G|-0-0--0-0--0-0--0-0--0-0-0--0-0--0-0--0-0-0-0-0--0-0-0-|
C|-0-0--0-0--0-0--0-0--0-0-0--0-0--0-0--0-0-0-0-0--0-0-0-|
   - -  - -  - -  - -  - - -  - -  - -  - - - - -  - - -
"LIIIIIIGHTS!!!"
D|----------------------------------------------|
A|----------------------------------------------|
F|----------------------------------------------|
C|----------------------------------------------|
G|-0-0--0-0--0-0--0-0--0-0-0---0--0--0--0--0--0-|
C|-0-0--0-0--0-0--0-0--0-0-0---0--0--0--0--0--0-|
   - -  - -  - -  - -  - - -   -  -  -  -  -  -
"WE WILL..."

Gtr 1
D|-----------------------------------------------------|
A|-----------------------------------------------------|
F|-10-10-10-10-10-10-10-10-10-10-12-12-9-9-9-9-9-9-9-9-|
C|-x--x--x--x--x--x--x--x--x--x--x--x--x-x-x-x-x-x-x-x-|
G|-8--8--8--8--8--8--8--8--8--8--10-10-7-7-7-7-7-7-7-7-|
C|-----------------------------------------------------|
"RISE!!! (RISE!!!)"
D|-----------------------------------------|
A|-----------------------------------------|
F|-5-5-5-5-5-5-5-5-3-3-3-3-7-7-7-7-7-7-7-7-|
C|-x-x-x-x-x-x-x-x-x-x-x-x-x-x-x-x-x-x-x-x-|
G|-3-3-3-3-3-3-3-3-1-1-1-1-5-5-5-5-5-5-5-5-|
C|-----------------------------------------|

D|-----------------------------------------------------|
A|-----------------------------------------------------|
F|-10-10-10-10-10-10-10-10-10-10-12-12-9-9-9-9-9-9-9-9-|
C|-x--x--x--x--x--x--x--x--x--x--x--x--x-x-x-x-x-x-x-x-|
G|-8--8--8--8--8--8--8--8--8--8--10-10-7-7-7-7-7-7-7-7-|
C|-----------------------------------------------------|
"AND THE LIGHTS!!!"
D|--------------------------------------------------------|
A|--------------------------------------------------------|
F|-17-17-17-17-17-17-17-17-15-15-15-15-19--19--19--19--19-|
C|-x--x--x--x--x--x--x--x--x--x--x--x--x---x---x---x---x--|
G|-15-15-15-15-15-15-15-15-13-13-13-13-17--17--17--17--17-|
C|--------------------------------------------------------|
"WE WILL...."
Gtr 2
D||--------------------------------------------------------|
A||o-------------------------------------------------------|
F||--------------------------------------------------------|
C||--------------------------------------------------------|
G||o-0-0--0-0--0-0--0-0--0-0-0--0-0--0-0--0-0-0-0-0--0-0-0-|
C||--0-0--0-0--0-0--0-0--0-0-0--0-0--0-0--0-0-0-0-0--0-0-0-|
     - -  - -  - -  - -  - - -  - -  - -  - - - - -  - - -
D|-----------------------------------------------||
A|----------------------------------------------o||
F|-----------------------------------------------||
C|-----------------------------------------------||
G|-0-0--0-0--0-0--0-0--0-0-0---0--0--0--0--0--0-o||
C|-0-0--0-0--0-0--0-0--0-0-0---0--0--0--0--0--0--||
   - -  - -  - -  - -  - - -   -  -  -  -  -  -


-Interlude-
Gtr 1- Clean
D||------------------------------------||
A||o----------------------------------o||
F||-10~~~---9~~~~----10~~~~----10---9--||
C||-0~~~~---0~~~~----8~~~~~----7----7--||
G||o----------------------------------o||
C||------------------------------------||x4
Gtr 2- Clean (comes in 3rd time)
D||----------------------------------------||
A||o--------------------------------------o||
F||--7-7-7-7-7-7-10-10-10-10-9--9--9--9--9-||
C||----------------------------------------||
G||o--------------------------------------o||
C||----------------------------------------||
"I've seen life, through death...
Under the weight of it all, we all collapse...
And with these eyes on survive...
We will come from the fall, and we will rise again...
The all night..."


-Outro-
D||--------------------------------------------------------------------|
A||o-------------------------------------------------------------------|
F||--------------------------------------------------------------------|
C||--0-0--0-0--------------------------0-0--0-0------------------------|
G||o-0-0--0-0--12p0-10p0-8p0-10p0-7p0--0-0--0-0--12p0-10p0-8p0-10p0-12-|
C||--0-0--0-0--------------------------0-0--0-0------------------------|
     - -  - -                          - -  - -
"I've seen... Life through death...(THE ALL NIGHT LIIGHTS!!!)
"And these eyes... On survive...
D|-------------------------------------------------------------||
A|------------------------------------------------------------o||
F|-------------------------------------------------------------||
C|-8-8--8-8-----------------------7-7--7-7---------------------||
G|-8-8--8-8--12p0-10p0-8p0-7p0-8--7-7--7-7--12p0-10p0-8p0-7*~-o||
C|-8-8--8-8-----------------------7-7--7-7---------------------||x4
   - -  - -                       - -  - -
Under the weight of it all, we all collapse"
We will come from the fall (THE ALL NIGHT LIIGHTS!!)"

D|------------0~~~~~~~~~~~~~~~~~~~~~~~~~~~~~~~~~~~~~~~~~~~~~~-|
A|------------x-----------------------------------------------|
F|------------10~~~~~~~~~~~~~~~~~~~~~~~~~~~~~~~~~~~~~~~~~~~~~-|
C|-0-0--0-0---0~~~~~~~~~~~~~~~~~~~~~~~~~~~~~~~~~~~~~~~~~~~~~~-|
G|-0-0--0-0---0~~~~~~~~~~~~~~~~~~~~~~~~~~~~~~~~~~~~~~~~~~~~~~-|
C|-0-0--0-0---0~~~~~~~~~~~~~~~~~~~~~~~~~~~~~~~~~~~~~~~~~~~~~~-|
   - -  - -





Comments


Popular 36 Crazy Fists tabs & chords
Left Hand Charity Bass Tabs
Only A Year Or So.. Bass Tabs
Turns To Ashes Bass Tabs
Ceramic 1 Tabs
Destroy The Map Correct Intro Intro Tabs
Eightminutesupsidedown 2 Tabs
Left Hand Charity Tabs
One More Word Tabs
Only A Year Or So Intro Tabs
The Heart And The Shape Tabs


Song lyrics



↑ Back to top | Tablatures and chords are parodies/interpretations of the original songs. You may use it for private study, scholarship, research or language learning purposes only
© 2014 AZChords.com Contact us | Privacy policy | DMCA | Add/correct tabs | Request tabs | Top 50 tabs