» » »

36 Crazy Fists, One More Word Tabs (ver.1)

Artists:  A B C D E F G H I J K L M N O P Q R S T U V W X Y Z # 

One More Word Tabs (ver.1)

36 Crazy Fists Tabs
 Rating:
4/5 (4 votes)
One More Word lessons Tabs too difficult? Try these video lessons and learn fast
                


drop 1 whole step and drop the 6th string to C (C-G-C-F-A-D)

D-------------------------------------------
A-------------------------------------------
F------------------------------------------- 2x (Fast Paced Intro)
C-13-13-13-10-10-10-9-9-9-10-10-10-9-9-10-10
G-13-13-13-10-10-10-9-9-9-10-10-10-9-9-10-10
C-13-13-13-10-10-10-9-9-9-10-10-10-9-9-10-10


Guitar A

notice that this time FOUR 13's are played and they're all palm muted.

D-------------------------------------------
A-------------------------------------------
F------------------------------------------- 4x (Heavy Part)
C-13-13-13-13-10-10-9-9-9-10-10-10-9-9-10-10
G-13-13-13-13-10-10-9-9-9-10-10-10-9-9-10-10
C-13-13-13-13-10-10-9-9-9-10-10-10-9-9-10-10
  PM  .  .  .


Guitar B

He only plays Guitar A at live shows, but you can give it a shot.
I'm guessing he uses some sort of pedal. This chord sounds close.

D---------------------------
A----/14\-------------------
F----/17\-------------------
C---------------------------
G---------------------------
C---------------------------

Verse

D-------------------------------------------
A-------------------------------------------
F------------------------------------------- 3x
C-------------------------------------------
G-------------------------------------------
C-13-13-13-10-10-10-9-9-9-10-10-10-9-9-10-10
  PM  .  .  .  .  . . . .  .  .  . . .  .  .
 
D-------------------------------------------
A-------------------------------------------
F------------------------------------------- 1x
C----------------------------------9--x-x-x-
G----------------------------------9--x-x-x-
C-13-13-13-10-10-10-9-9-9-10-10-10-9--x-x-x-
  PM  .  .  .  .  .

(drums kick in)

D-------------------------------------------
A-------------------------------------------
F------------------------------------------- 3x
C-------------------------------------------
G-------------------------------------------
C-13-13-13-10-10-10-9-9-9-10-10-10-9-9-10-10
  PM  .  .  .  .  . . . .  .  .  . . .  .  .

D-------------------------------------------
A-------------------------------------------
F------------------------------------------- 1x
C-13-13-13-10-10-10-9-9-9-10-10-10-9-9-10-10
G-13-13-13-10-10-10-9-9-9-10-10-10-9-9-10-10
C-13-13-13-10-10-10-9-9-9-10-10-10-9-9-10-10

All the verses are practically the same, except for
the third verse. This is when they stop and the lyrics
are "One more word, I'm asking you to come and get it"

Before the drums kick in, the same riff is played but
ONLY on the 4th string. Then the drums kick in and it's
the same palm muted stuff as before. 



Chorus

D-----------------------------------
A-----------------------------------
F----------------------------------- 2x
C-4---5---0---4---5-4----4---5---0--
G-4---5---0---4---5-4----4---5---0--
C-4---5---0---4---5-4----4---5---0--  
Please fight for me! Please fight for me!


Bridge

D-----------------------------------------------------
A-----------------------------------------------------
F-----------------------------------------------------
C-4---1---0---1---0-1------4---1---0---0-0---0-0------
G-4---1---0---1---0-1------4---1---0---0-0---0-0------
C-4---1---0---1---0-1------4---1---0---0-0---0-0------
                                      PM .   . .

At times he only picks the 6th string, giving it a nice heavy sound.

C-4---1---0---1---0-1------4---1---0---0-0---0-0------

After the bridge, he does a slide on the 6th string to mark a break.


The first time he does this:

C----13---9---10---

but when he ends the song, he does this

C-13---10---9---/0--


Well, that's pretty much it. Kick ass song by a kick ass band. 
I'm lazy so you figure out the order on your own.

My other 36 CF tabs:
-Slit Wrist Theory
-Turns To Ashes
-Eightminutesupsidedown
-An Agreement Called Forever
            
Submit corrections

comments powered by Disqus
↑ Back to top | 36 Crazy Fists Tabs for One More Word. Lyrics for acoustic guitar and electric guitar. Tablatures and chords are parodies/interpretations of the original songs. You may use it for private study, scholarship, research or language learning purposes only