>
 >
Midnight Swim

Midnight Swim Guitar Tabs

36 Crazy Fists - Midnight Swim chords, tabs, tablatures, lyrics

Guitar lessons | Add/correct | Request | Top 50 tabs Artists:  A B C D E F G H I J K L M N O P Q R S T U V W X Y Z 0-9

Midnight Swim Guitar Tabs – 36 Crazy Fists

CD, Sheet music, Poster

Do you like Midnight Swim? Share with your friends now
Tabs

Tuning: Drop C [C,G,C,F,A,D]

I couldn't believe that there were tabs for "The City Ignites"
(for those of you who don't know, that's the acoustic version of
But let's face it, people don't wanna download a program to read
tab. It's called NOTEPAD, people. Anyway, here's the tab.

Intro A x1

GUITAR ONE

D|-----------------------------------------------------|
A|-----------------------------------------------------|
F|-----------------------------------------------------|
C|-9-9----------------------9-9-9~~~~~~~~~~~~~~~~~~~~~-|
G|-9-9----------------------9-9-9~~~~~~~~~~~~~~~~~~~~~-|
C|-9-9----------------------9-9-9~~~~~~~~~~~~~~~~~~~~~-|

GUITAR TWO

D|-----------------------------------------------------|
A|-----------------------------------------------------|
F|-----------------------------------------------------|
C|-----121212-111111--------121212121212-111111--------|
G|-------------------121212---------------------121212-|
C|-----------------------------------------------------|
PM     . . .  . . .  . . .  . . . . . .  . . .  . . .

continued...

GUITAR ONE

D|-----------------------------------------------------|
A|-----------------------------------------------------|
F|-----------------------------------------------------|
C|-5-5----------------------5-5-5~~~~~~~~~~~~~~~~~~~~~-|
G|-5-5----------------------5-5-5~~~~~~~~~~~~~~~~~~~~~-|
C|-5-5----------------------5-5-5~~~~~~~~~~~~~~~~~~~~~-|

GUITAR TWO

D|------------------------------------------------------|
A|------------------------------------------------------|
F|------------------------------------------------------|
C|-----121212-111111--------111111-141414-161616-111111-|
G|-------------------121212-----------------------------|
C|------------------------------------------------------|
PM     . . .  . . .  . . .  . . .  . . .  . . .  . . .


Intro B x1

GUITAR ONE

D|-----------------------------------------------------|
A|-----------------------------------------------------|
F|-----------------------------------------------------|
C|-9-9----------------------9-9-9~~~~~~~~~~~~~~~~~~~~~-|
G|-9-9----------------------9-9-9~~~~~~~~~~~~~~~~~~~~~-|
C|-9-9----------------------9-9-9~~~~~~~~~~~~~~~~~~~~~-|

GUITAR TWO

D|-------------------------------------------|
A|-------------------------------------------|
F|-------------------------------------------|
C|-121212-111111--------121212-111111--------|x4
G|---------------121212---------------121212-|
C|-------------------------------------------|
PM . . .  . . .  . . .  . . .  . . .  . . .

GUITAR ONE

D|-----------------------------------------------------|
A|-----------------------------------------------------|
F|-----------------------------------------------------|
C|-5-5----------------------5-5-5~~~~~~~~~~~~~~~~~~~~~-|
G|-5-5----------------------5-5-5~~~~~~~~~~~~~~~~~~~~~-|
C|-5-5----------------------5-5-5~~~~~~~~~~~~~~~~~~~~~-|

D|----------------------|  |-----------------------------|
A|----------------------|  |-----------------------------|
F|----------------------|  |-----------------------------|
C|-121212-111111--------|x3|-111111-141414-161616-111111-|
G|---------------121212-|  |-----------------------------|
C|----------------------|  |-----------------------------|
PM . . .  . . .  . . .


VERSE x4

D|---------------------------------|
A|---------------------------------|
F|---------------------------------|
C|-9-99-99~~~~~~~~-5-55-57~~~~~~~~-|
G|-9-99-99~~~~~~~~-5-55-57~~~~~~~~-|
C|-9-99-99~~~~~~~~-5-55-57~~~~~~~~-|
PM   .  .            .  .


PRECHORUS
Part One

GUITAR ONE

D|-------------------------------------|
A|-------------------------------------|
F|-------------------------------------|
C|-5-5555555555555-7-77777777777777777-|
G|-5-5555555555555-7-77777777777777777-|
C|-5-5555555555555-7-77777777777777777-|
PM   .............   .................

GUITAR TWO

D|-------------------------------------|
A|-------------------------------------|
F|-------------------------------------|
C|-9-7*------------12-11*9*-7-4-7-11-9-|
G|----9*-7-5-7-9p5---------------------|
C|-------------------------------------|

Part Two

D|-------------------------------------|
A|-------------------------------------|
F|-------------------------------------|
C|-5-5555555555555-7-77777777777777777-|
G|-5-5555555555555-7-77777777777777777-|
C|-5-5555555555555-7-77777777777777777-|
PM   .............   .................

GUITAR TWO

D|-------------------------------------|
A|-------------------------------------|
F|-------------------------------------|
C|-9-7*------------12-11*9*-/12--\11\7-|
G|----9*-7-5-7-9p5---------------------|
C|-------------------------------------|


CHORUS x2

GUITAR ONE

D|-----------------------------------------------------|
A|-----------------------------------------------------|
F|-----------------------------------------------------|
C|-999999999999999999999999999999999999999999999999999-|
G|-999999999999999999999999999999999999999999999999999-|
C|-999999999999999999999999999999999999999999999999999-|

GUITAR TWO

D|-------------------------------------------|
A|-------------------------------------------|
F|-------------------------------------------|
C|-121212-111111--------121212-111111--------|x4
G|---------------121212---------------121212-|
C|-------------------------------------------|

GUITAR ONE

D|-----------------------------------------------------|
A|-----------------------------------------------------|
F|-----------------------------------------------------|
C|-555555555555555555555555555555555555555555555555555-|
G|-555555555555555555555555555555555555555555555555555-|
C|-555555555555555555555555555555555555555555555555555-|

D|----------------------|  |-----------------------------|
A|----------------------|  |-----------------------------|
F|----------------------|  |-----------------------------|
C|-121212-111111--------|x3|-111111-141414-161616-111111-|
G|---------------121212-|  |-----------------------------|
C|----------------------|  |-----------------------------|


VERSE x4

D|---------------------------------|
A|---------------------------------|
F|---------------------------------|
C|-9-99-99~~~~~~~~-5-55-57~~~~~~~~-|
G|-9-99-99~~~~~~~~-5-55-57~~~~~~~~-|
C|-9-99-99~~~~~~~~-5-55-57~~~~~~~~-|
PM   .  .            .  .


PRECHORUS
Part One

GUITAR ONE

D|-------------------------------------|
A|-------------------------------------|
F|-------------------------------------|
C|-5-5555555555555-7-77777777777777777-|
G|-5-5555555555555-7-77777777777777777-|
C|-5-5555555555555-7-77777777777777777-|
PM   .............   .................

GUITAR TWO

D|-------------------------------------|
A|-------------------------------------|
F|-------------------------------------|
C|-9-7*------------12-11*9*-7-4-7-11-9-|
G|----9*-7-5-7-9p5---------------------|
C|-------------------------------------|

Part Two

D|-------------------------------------|
A|-------------------------------------|
F|-------------------------------------|
C|-5-5555555555555-7-77777777777777777-|
G|-5-5555555555555-7-77777777777777777-|
C|-5-5555555555555-7-77777777777777777-|
PM   .............   .................

GUITAR TWO

D|-------------------------------------|
A|-------------------------------------|
F|-------------------------------------|
C|-9-7*------------12-11*9*-/12--\11\7-|
G|----9*-7-5-7-9p5---------------------|
C|-------------------------------------|


CHORUS x2

GUITAR ONE

D|-----------------------------------------------------|
A|-----------------------------------------------------|
F|-----------------------------------------------------|
C|-999999999999999999999999999999999999999999999999999-|
G|-999999999999999999999999999999999999999999999999999-|
C|-999999999999999999999999999999999999999999999999999-|

GUITAR TWO

D|-------------------------------------------|
A|-------------------------------------------|
F|-------------------------------------------|
C|-121212-111111--------121212-111111--------|x4
G|---------------121212---------------121212-|
C|-------------------------------------------|

GUITAR ONE

D|-----------------------------------------------------|
A|-----------------------------------------------------|
F|-----------------------------------------------------|
C|-555555555555555555555555555555555555555555555555555-|
G|-555555555555555555555555555555555555555555555555555-|
C|-555555555555555555555555555555555555555555555555555-|

D|----------------------|  |-----------------------------|
A|----------------------|  |-----------------------------|
F|----------------------|  |-----------------------------|
C|-121212-111111--------|x3|-111111-141414-161616-111111-|
G|---------------121212-|  |-----------------------------|
C|----------------------|  |-----------------------------|


Bridge A

GUITAR ONE

D|-------------------------------------------------|
A|-------------------------------------------------|
F|-------------------------------------------------|
C|-44-44-44-44-44-44-44-44-00-00-00-00-00-00-00-00-|
G|-44-44-44-44-44-44-44-44-00-00-00-00-00-00-00-00-|
C|-44-44-44-44-44-44-44-44-00-00-00-00-00-00-00-00-|

GUITAR TWO

D|-----------------------------------|
A|-----------------------------------|
F|-----------------------------------|
C|-11-12-11-9-11-9-7-9-7-6-7-6-4-6-2-|x2
G|-----------------------------------|
C|-----------------------------------|
PM .  .  .  . .  . . . . . . . . . .

Part Two

GUITAR ONE

D|-------------------------------------------------|
A|-------------------------------------------------|
F|-------------------------------------------------|
C|-44-44-44-44-44-44-44-44-00-00-00-00-00-00-00-00-|
G|-44-44-44-44-44-44-44-44-00-00-00-00-00-00-00-00-|
C|-44-44-44-44-44-44-44-44-00-00-00-00-00-00-00-00-|

GUITAR TWO

D|--------------------------------|
A|--------------------------------|
F|-9-11-9-7-9-7-6-7-6-4-6-4-2-4-0-|
C|--------------------------------|
G|--------------------------------|
C|--------------------------------|
PM . .  . . . . . . . . . . . . .


Bridge B x2

GUITAR ONE

D|-------------------------------------------------|
A|-------------------------------------------------|
F|-------------------------------------------------|
C|-44-44-44-44-44-44-44-44-00-00-00-00-00-00-00-00-|
G|-44-44-44-44-44-44-44-44-00-00-00-00-00-00-00-00-|
C|-44-44-44-44-44-44-44-44-00-00-00-00-00-00-00-00-|

GUITAR TWO

D|--------------------------------------------------|
A|--------------------------------------------------|
F|--------------------------------------------------|
C|------444444------444444------222222------222/444-|
G|--------------------------------------------------|
C|--------------------------------------------------|


-BASS SOLO THING THAT MIGHT BE GUITAR SO I'LL TAB IT ANYWAY-
-FOR THE SAKE OF PLAYING IT ON GUITAR HERE'S 2 GUITAR PARTS-

GUITAR TWO Repeats until the end of this

D|-----------------------------------------|
A|-----------------------------------------|
F|-----------------------------------------|
C|-999-777-------------999-777-------------|
G|---------999-777-999---------999-777-999-|
C|-----------------------------------------|

GUITAR ONE

D|-----------------------------------------------------|
A|-----------------------------------------------------|
F|-----------------------------------------------------|
C|--------7~~~~--------7~~~~--------5~~~~--------5~~~~-|
G|------7------------7------------5------------5-------|
C|-7-7----------7-7----------5-5----------5-5----------|

continued...

D|------------------------|
A|------------------------|
F|------------------------|
C|--------7~~~~-7~~~~~~~~-|
G|------7-------7~~~~~~~~-|
C|-7-7----------7~~~~~~~~-|


CHORUS x2

GUITAR ONE

D|-----------------------------------------------------|
A|-----------------------------------------------------|
F|-----------------------------------------------------|
C|-999999999999999999999999999999999999999999999999999-|
G|-999999999999999999999999999999999999999999999999999-|
C|-999999999999999999999999999999999999999999999999999-|

GUITAR TWO

D|-------------------------------------------|
A|-------------------------------------------|
F|-------------------------------------------|
C|-121212-111111--------121212-111111--------|x4
G|---------------121212---------------121212-|
C|-------------------------------------------|

GUITAR ONE

D|-----------------------------------------------------|
A|-----------------------------------------------------|
F|-----------------------------------------------------|
C|-555555555555555555555555555555555555555555555555555-|
G|-555555555555555555555555555555555555555555555555555-|
C|-555555555555555555555555555555555555555555555555555-|

D|----------------------|  |-----------------------------|
A|----------------------|  |-----------------------------|
F|----------------------|  |-----------------------------|
C|-121212-111111--------|x3|-111111-141414-161616-111111-|
G|---------------121212-|  |-----------------------------|
C|----------------------|  |-----------------------------|


OUTRO

GUITAR ONE

D|----------------|  |----------------|
A|----------------|  |----------------|
F|----------------|  |----------------|
C|-99-99-99999999-|x2|-55-55-55555555-|x2
G|-99-99-99999999-|  |-55-55-55555555-|
C|-99-99-99999999-|  |-55-55-55555555-|


END ON

GUITAR ONE

D|-----------------------------------------|
A|-----------------------------------------|
F|-----------------------------------------|
C|-11-11-------11-11--------7~~~~~~~~~~~~~-|
G|-9--9--------9--9---------5~~~~~~~~~~~~~-|
C|-9--9--------9--9---------5~~~~~~~~~~~~~-|





Comments


Popular 36 Crazy Fists tabs & chords
Bury Me Where I Fall Bass Tabs
Circle The Drain Bass Tabs
Erasism Bass Tabs
Turns To Ashes 1 Bass Tabs
Bloodwork Tabs
Eightminutesupsidedown 1 Tabs
One More Word Tabs
Only A Year Or So Intro Tabs
Slit Wrist Theory 1 Tabs
The City Below Tabs


Song lyrics



↑ Back to top | Tablatures and chords are parodies/interpretations of the original songs. You may use it for private study, scholarship, research or language learning purposes only
© 2014 AZChords.com Contact us | Privacy policy | DMCA | Add/correct tabs | Request tabs | Top 50 tabs