» » »

36 Crazy Fists, Left Hand Charity Tabs (ver.1)

Artists:  A B C D E F G H I J K L M N O P Q R S T U V W X Y Z # 

Left Hand Charity Tabs (ver.1)

36 Crazy Fists Tabs
 Rating:
4/5 (4 votes)
Left Hand Charity lessons Tabs too difficult? Try these video lessons and learn fast
                GT'er:  aggie greggie laredo, tx
p.s.    these alaskans rule!!! and i hope this helps you guys that want to play
        this sweet ballad

Standard Drop D

e---------------------------
B---------------------------
G---------------------------   x6
D----4-6-7p6------0-2p0-----
A---4-4-4--------0-0---4p0--
D--4------------0-----------

e---------------------------
B---------------------------
G---------------------------   x2
D--44444444-44444444--------
A--44444444-44444444--------
D--44444444p22222222--------

e---------------------------
B---------------------------
G---------------------------   x6
D----4-6-7p6------0-2p0-----
A---4-4-4--------0-0---4p0--
D--4------------0-----------

e---------------------------
B---------------------------
G---------------------------   x4
D--44444444-44444444--------
A--44444444-44444444--------
D--44444444p22222222--------

e---------------------------          e-----
B---------------------------          B-----
G---------------------------   x4     G----- x1
D----4-6-7p6------0-2p0-----          D--4--
A---4-4-4--------0-0---4p0--          A--4--
D--4------------0-----------          D--4--


Lyrics
A classroom cirlce slowly drifts on...
I knew right then I'd carve you name, so I...
Save your charity it's gone too far now as it seems

I drive by your scenery...
All the while I died that night...
Please come back, tell me it's alright

And save your charity it's gone too far now as it seems...
Little boys that misbehave

And I want to look you in your eye...
I want to look you in your eye...
Want to look you in your eye
I want to look you in your eye
            
Submit corrections

comments powered by Disqus
↑ Back to top | 36 Crazy Fists Tabs for Left Hand Charity. Lyrics for acoustic guitar and electric guitar. Tablatures and chords are parodies/interpretations of the original songs. You may use it for private study, scholarship, research or language learning purposes only