>
 >
Kenai

Kenai Guitar Tabs

36 Crazy Fists - Kenai chords, tabs, tablatures, lyrics

Guitar lessons | Add/correct | Request | Top 50 tabs Artists:  A B C D E F G H I J K L M N O P Q R S T U V W X Y Z 0-9

Kenai Guitar Tabs – 36 Crazy Fists

CD, Sheet music, Poster

Do you like Kenai? Share with your friends now
Bass TabsTabs
36 Crazyfists
A Snow Capped Romance
Drop C- CGCFAD

-Intro-
Gtr 1- Distortion
D|-----------------------|
A|-----------------------|
F|-----------------------|
C|-feedback---4--4--4--4-|
G|------------4--4--4--4-|
C|------------4--4--4--4-|

Gtr 1,2- Distortion
D||----------------------------------------------------------------|
A||o-------------------------------0*------------------------------|
F||--------------------------------0*------------------------------|
C||--0h1-0h1-0h1-0h1--3-1-3-1-3-1--0*--0h1-0h1-0h1-0h1--4--4--4--4-|
G||o-0h1-0h1-0h1-0h1--3-1-3-1-3-1------0h1-0h1-0h1-0h1--4--4--4--4-|
C||--0h1-0h1-0h1-0h1--3-1-3-1-3-1------0h1-0h1-0h1-0h1--4--4--4--4-|
                      pm- - - - -

-Bass-
F|-----------------|
C|-----------------|
G|-----------------|
C|-0h1-0h1-0h1-0h1-|


-Verse-
D|--------------------------------------------------------------------------|
A|--------------------------------------------------------------------------|
F|--------------------------------------------------------------------------|
C|-0h1-0h1-0h1-0h3--0*--0h1-0h1-0h1-3h5--0h1-0h1-0h1-0h3--0*--0h1-0h1--4--4-|
G|-0h1-0h1-0h1-0h3--0*--0h1-0h1-0h1-3h5--0h1-0h1-0h1-0h3--0*--0h1-0h1--4--4-|
C|-0h1-0h1-0h1-0h3------0h1-0h1-0h1-3h5--0h1-0h1-0h1-0h3------0h1-0h1--4--4-|
“OVER MOUNTAINS I FEEL SAFE!!! SACRED WERE THOSE SUMMERS!!!”

D|--------------------------------------------------------------------------------|
A|--------------------------------------------------------------------------------|
F|--------------------------------------------------------------------------------|
C|-0h1-0h1-0h1-0h3--0*--0h1-0h1-0h1-3h5--0h1-0h1-0h1-0h3--0*--0h1-0h1--4--4--4--4-|
G|-0h1-0h1-0h1-0h3--0*--0h1-0h1-0h1-3h5--0h1-0h1-0h1-0h3--0*--0h1-0h1--4--4--4--4-|
C|-0h1-0h1-0h1-0h3------0h1-0h1-0h1-3h5--0h1-0h1-0h1-0h3------0h1-0h1--4--4--4--4-|
“AND THESE MEMORIES I PLACE... IN MY HEART FOR SHELTER!!!”

D|---------------------------------------------------------------|
A|-------------------------------0*------------------------------|
F|-------------------------------0*------------------------------|
C|-0h1-0h1-0h1-0h1--3-1-3-1-3-1--0*--0h1-0h1-0h1-0h1--4--4--4--4-|
G|-0h1-0h1-0h1-0h1--3-1-3-1-3-1------0h1-0h1-0h1-0h1--4--4--4--4-|
C|-0h1-0h1-0h1-0h1--3-1-3-1-3-1------0h1-0h1-0h1-0h1--4--4--4--4-|
                    - - - - - -
“AND I MODIFY, JUST TO SMELL THE OCEAN!!!”

D|---------------------------------------------------|
A|-------------------------------0*------------------|
F|-------------------------------0*------------------|
C|-0h1-0h1-0h1-0h1--3-1-3-1-3-1--0*--0h1-0h1-0h1-0h1-|
G|-0h1-0h1-0h1-0h1--3-1-3-1-3-1------0h1-0h1-0h1-0h1-|
C|-0h1-0h1-0h1-0h1--3-1-3-1-3-1------0h1-0h1-0h1-0h1-|
                    - - - - - -
“AND I UNDERLINE, VISUALIZING MOTION!”


-Chorus-
D|-4-------------------------------------------------------|
A|-x-------------------------------------------------------|
F|-6---------------------------4---------------------------|
C|-4-4-4-4-4-4-4-4-4-4-4-4-4-4-2-2-2-2-2-2-2-2-2-2-2-2-2-2-|
G|-4-4-4-4-4-4-4-4-4-4-4-4-4-4-2-2-2-2-2-2-2-2-2-2-2-2-2-2-|
C|-4-4-4-4-4-4-4-4-4-4-4-4-4-4-2-2-2-2-2-2-2-2-2-2-2-2-2-2-|
“And I guess I miss my home...      I could not stay...”

D|---------------------------------------------------------------|
A|---------------------------------------------------------------|
F|-8-------------------------------------------------------------|
C|-6-6-6-6-6-6-6-6-6-6-6-6-6-6-6/7-7-7-7-7-7-7/8-8-8--4--4--4--4-|
G|-6-6-6-6-6-6-6-6-6-6-6-6-6-6-6/7-7-7-7-7-7-7/8-8-8--4--4--4--4-|
C|-6-6-6-6-6-6-6-6-6-6-6-6-6-6-6/7-7-7-7-7-7-7/8-8-8--4--4--4--4-|
“I’ll return...       it’s alright...        I’m okay...”


-Bass-
F|-----------------|
C|-----------------|
G|-----------------|
C|-0h1-0h1-0h1-0h1-|


-Verse-
D|--------------------------------------------------------------------------|
A|--------------------------------------------------------------------------|
F|--------------------------------------------------------------------------|
C|-0h1-0h1-0h1-0h3--0*--0h1-0h1-0h1-3h5--0h1-0h1-0h1-0h3--0*--0h1-0h1--4--4-|
G|-0h1-0h1-0h1-0h3--0*--0h1-0h1-0h1-3h5--0h1-0h1-0h1-0h3--0*--0h1-0h1--4--4-|
C|-0h1-0h1-0h1-0h3------0h1-0h1-0h1-3h5--0h1-0h1-0h1-0h3------0h1-0h1--4--4-|
“REOCURRED DAYDREAM!!! TIE UP STERN FIRST!!!”

D|--------------------------------------------------------------------------------|
A|--------------------------------------------------------------------------------|
F|--------------------------------------------------------------------------------|
C|-0h1-0h1-0h1-0h3--0*--0h1-0h1-0h1-3h5--0h1-0h1-0h1-0h3--0*--0h1-0h1--4--4--4--4-|
G|-0h1-0h1-0h1-0h3--0*--0h1-0h1-0h1-3h5--0h1-0h1-0h1-0h3--0*--0h1-0h1--4--4--4--4-|
C|-0h1-0h1-0h1-0h3------0h1-0h1-0h1-3h5--0h1-0h1-0h1-0h3------0h1-0h1--4--4--4--4-|
“AND THESE GIFTS I’VE LEARNED!!! NEVER LEAVE ME!!!”

D|---------------------------------------------------------------|
A|-------------------------------0*------------------------------|
F|-------------------------------0*------------------------------|
C|-0h1-0h1-0h1-0h1--3-1-3-1-3-1--0*--0h1-0h1-0h1-0h1--4--4--4--4-|
G|-0h1-0h1-0h1-0h1--3-1-3-1-3-1------0h1-0h1-0h1-0h1--4--4--4--4-|
C|-0h1-0h1-0h1-0h1--3-1-3-1-3-1------0h1-0h1-0h1-0h1--4--4--4--4-|
                    - - - - - -
“AND I REDESIGN!!! FAMILY AND GROWING!!!”

D|---------------------------------------------------|
A|-------------------------------0*------------------|
F|-------------------------------0*------------------|
C|-0h1-0h1-0h1-0h1--3-1-3-1-3-1--0*--0h1-0h1-0h1-0h1-|
G|-0h1-0h1-0h1-0h1--3-1-3-1-3-1------0h1-0h1-0h1-0h1-|
C|-0h1-0h1-0h1-0h1--3-1-3-1-3-1------0h1-0h1-0h1-0h1-|
                    - - - - - -
“AND I REALIGN!!! FORGETTING NOTHING!!!”


-Chorus-
D||--4-------------------------------------------------------|
A||o-x-------------------------------------------------------|
F||--6---------------------------4---------------------------|
C||--4-4-4-4-4-4-4-4-4-4-4-4-4-4-2-2-2-2-2-2-2-2-2-2-2-2-2-2-|
G||o-4-4-4-4-4-4-4-4-4-4-4-4-4-4-2-2-2-2-2-2-2-2-2-2-2-2-2-2-|
C||--4-4-4-4-4-4-4-4-4-4-4-4-4-4-2-2-2-2-2-2-2-2-2-2-2-2-2-2-|
“And I guess I miss my home...      I could not stay...”
“Maybe in a few years it'll come back to you”

D|----------------------------------------------------------||
A|---------------------------------------------------------o||
F|-8--------------------------------------------------------||
C|-6-6-6-6-6-6-6-6-6-6-6-6-6-6-6/7-7-7-7-7-7-7/8-8-8-8-8-8--||
G|-6-6-6-6-6-6-6-6-6-6-6-6-6-6-6/7-7-7-7-7-7-7/8-8-8-8-8-8-o||
C|-6-6-6-6-6-6-6-6-6-6-6-6-6-6-6/7-7-7-7-7-7-7/8-8-8-8-8-8--||
“I’ll return...             it’s alright...        I’m okay...”
“Reflection becoming your virtue...”


-Bridge-
Gtr 1- clean              Gtr 1,2- dist.  Gtr 1- clean             vol. swell
D|-----------------------|--------------|------------------------|--------|
A|-----------------------|--------------|------------------------|--------|
F|-----------------------|--------------|------------------------|--------|
C|-4~--x-x--4~--x-x--4~--|---4~-4~-4~---|--4~--x-x--4~--x-x--4~--|--~~(4)-|
G|-4~--x-x--4~--x-x--4~--|---4~-4~-4~---|--4~--x-x--4~--x-x--4~--|--~~(4)-|
C|-4~--x-x--4~--x-x--4~--|---4~-4~-4~---|--4~--x-x--4~--x-x--4~--|--~~(4)-|
                             -  -  -
“So sort me out...        LAY ME AWAY!    Over these mountains I feel safe”

Gtr 1,2- Distortion
D|----------------------------------------------------|
A|----------------------------------------------------|
F|-10/---------10/---------10/---------12-12--12--11/-|
C|-8/---3-3-3--8/---3-3-3--8/---3-3-3--x--x---x---x---|
G|-8/---3-3-3--8/---3-3-3--8/---3-3-3--10-10--10--9/--|
C|-8/---3-3-3--8/---3-3-3--8/---3-3-3-----------------|
        - - -       - - -       - - -
D|---------------------------------------------------------------------|
A|---------------------------------------------------------------------|
F|-10/---------10/---------10/---------12-12--12-14/11--12---16x\\\\\\-|
C|-8/---3-3-3--8/---3-3-3--8/---3-3-3--x--x---x--x--x---x----16x\\\\\\-|
G|-8/---3-3-3--8/---3-3-3--8/---3-3-3--10-10--10-12/9---10---16x\\\\\\-|
C|-8/---3-3-3--8/---3-3-3--8/---3-3-3----------------------------------|
        - - -       - - -       - - -                        pickslide

Gtr 1- Clean
D|------------------------------|
A|------------------------------|
F|------------------------------|
C|------------------------------|
G|-4-4-4-4-4-4-4--7-7-7-7-7-7-7-|
C|------------------------------|
   - - - - - - -  - - - - - - -
“And I guess I miss my home..
I could not stay..”


-Chorus-
Gtr 1,2- dist.
D||--4-------------------------------------------------------|
A||o-x-------------------------------------------------------|
F||--6---------------------------4---------------------------|
C||--4-4-4-4-4-4-4-4-4-4-4-4-4-4-2-2-2-2-2-2-2-2-2-2-2-2-2-2-|
G||o-4-4-4-4-4-4-4-4-4-4-4-4-4-4-2-2-2-2-2-2-2-2-2-2-2-2-2-2-|
C||--4-4-4-4-4-4-4-4-4-4-4-4-4-4-2-2-2-2-2-2-2-2-2-2-2-2-2-2-|
“And I guess I miss my home...      I could not stay...”
“Maybe in a few years it'll come back to you”
“So sort me out.. Lay me away..”

D|----------------------------------------------------------||
A|---------------------------------------------------------o||
F|-8--------------------------------------------------------||
C|-6-6-6-6-6-6-6-6-6-6-6-6-6-6-6/7-7-7-7-7-7-7/8-8-8-8-8-8--||
G|-6-6-6-6-6-6-6-6-6-6-6-6-6-6-6/7-7-7-7-7-7-7/8-8-8-8-8-8-o||
C|-6-6-6-6-6-6-6-6-6-6-6-6-6-6-6/7-7-7-7-7-7-7/8-8-8-8-8-8--||x3
“I’ll return...             it’s alright...      I’m okay...”
“Reflection becoming your virtue...”
“Over these mountains, I feel...”

D||-----------------------------------------------||---------|
A||o---------------------------------------------o||---------|
F||-----------------------------------------------||---------|
C||--4--4--4--4--4--4--4--4--4--4--4--4--4--4--4--||---------|
G||o-4--4--4--4--4--4--4--4--4--4--4--4--4--4--4-o||-1-1-1-1-|
C||--4--4--4--4--4--4--4--4--4--4--4--4--4--4--4--||-1-1-1-1-|
“SAAAAAAAAAAAAAAAAFE!!”                              - - - -

D|---------------------------------------------------------------------------------|
A|---------------------------------------------------------------------------------|
F|-------------------------------------------------------16x\\\\\\\\\\-------------|
C|-4--4--4--4--4--4-----------4--4--4--4--4--4-----------16x\\\\\\\\\\\---feedback-|
G|-4--4--4--4--4--4--1-3-1-3--4--4--4--4--4--4--1-1-1-1--16x\\\\\\\\\\\\-----------|
C|-4--4--4--4--4--4--1-3-1-3--4--4--4--4--4--4--1-1-1-1----------------------------|
                     - - - -                    - - - -





Comments


Popular 36 Crazy Fists tabs & chords
All I Am Bass Tabs
The City Below Chords
Between The Anchor And The Air Intro Tabs
City Ignites Tabs
Eightminutesupsidedown 2 Tabs
Long Road To The Late Nights Intro Tabs
Mother Mary Tabs
Only A Year Or So.. Tabs
Turns To Ashes Tabs
Turns To Ashes 1 Tabs


Song lyrics



↑ Back to top | Tablatures and chords are parodies/interpretations of the original songs. You may use it for private study, scholarship, research or language learning purposes only
© 2014 AZChords.com Contact us | Privacy policy | DMCA | Add/correct tabs | Request tabs | Top 50 tabs