» » »

36 Crazy Fists, In The Skin Bass tabs (ver.1)

Artists:  A B C D E F G H I J K L M N O P Q R S T U V W X Y Z # 

In The Skin Bass tabs (ver.1)

36 Crazy Fists Tabs
 Rating:
4/5 (4 votes)
In The Skin lessons Tabs too difficult? Try these video lessons and learn fast
                Intro (0:00) (don’t play brackets the first time)
F--------------------------------------------------------------|
C--------6------------5-----------6-----------------------2-0--|
G-----8-----8------7----7-------8----8-------------------------|
C-6----------(6)-5--------(5)-6----------5-4-3-4-1-------------|

Intro Cont. (0:35)
F----------------|
C----------------|
G----------------|
C-1-1---1-33-4---|

Intro Cont. 2 (0:40) (palm muting helps for those who use picks)
F-----------------------------------|
C-----------------------------------|
G-----------------------------------|
C-1-1--1-1-1--1-1-1--1-1-1--1-33-4--|

Chorus (0:50)
F----------------------------------------------------------------------------------|
C------------------4--------------------3p1--------------------1-------------------|
G--------------------------------------------------------------------------------6/|
C-1-11-34-1-11-134-----1-11-34-1-11-134-------1-11-34-1-11-134----1-11-34-1-11-134-|

Verse (1:10)							Last Time (1:28)
F---------------------------------------------------------------|------------------|
C----------------4----------------3---------------1-------------|------------------|
G-----------------------------------------------------------6\\\|------------------|
C-11-111-111-134---11-111-111-134---11-111-111-134---11-111-----|-11-111-111-11111-|

Chorus (1:32)
Verse (1:39)

Post Chorus (2:19)
F-------------------------------------|
C-------------------------------------|
G-------------------------------------|
C—6~--8~--1-1--1-1-1--1-1-1--1-3-3-4—-|

Pre Verse (2:37)
F------------------------------|
C------------------------------|
G------------------------------|
C-1-1-1-1-3-1-1-3-1-3-1-3-4----|

Verse (2:48)
Chorus (3:07)
Post Chorus (3:28)
Pre Verse (3:44)

Heavy Riff (3:54)			Last Time
F----------------------------------|-----------------------------------|
C----------------------------------|-----------------------------------|
G----------------------------------|-----------------------------------|
C-1-1-1-1-3-1-1-3-1-3-1-3-4-4-4-4--|--1-1-1-1-3-1-1-3-1-3-1-4-3-3-3-3--|

End with Pre Verse
            
Submit corrections

comments powered by Disqus
↑ Back to top | 36 Crazy Fists Bass for In The Skin. Lyrics for acoustic guitar and electric guitar. Tablatures and chords are parodies/interpretations of the original songs. You may use it for private study, scholarship, research or language learning purposes only