>
 >
In The Skin

In The Skin Bass Tabs

36 Crazy Fists - In The Skin chords, tabs, tablatures, lyrics

Guitar lessons | Add/correct | Request | Top 50 tabs Artists:  A B C D E F G H I J K L M N O P Q R S T U V W X Y Z 0-9

In The Skin Bass Tabs – 36 Crazy Fists

CD, Sheet music, Poster

Do you like In The Skin? Share with your friends now
Bass Tabs
Intro (0:00) (dont play brackets the first time)
F--------------------------------------------------------------|
C--------6------------5-----------6-----------------------2-0--|
G-----8-----8------7----7-------8----8-------------------------|
C-6----------(6)-5--------(5)-6----------5-4-3-4-1-------------|

Intro Cont. (0:35)
F----------------|
C----------------|
G----------------|
C-1-1---1-33-4---|

Intro Cont. 2 (0:40) (palm muting helps for those who use picks)
F-----------------------------------|
C-----------------------------------|
G-----------------------------------|
C-1-1--1-1-1--1-1-1--1-1-1--1-33-4--|

Chorus (0:50)
F----------------------------------------------------------------------------------|
C------------------4--------------------3p1--------------------1-------------------|
G--------------------------------------------------------------------------------6/|
C-1-11-34-1-11-134-----1-11-34-1-11-134-------1-11-34-1-11-134----1-11-34-1-11-134-|

Verse (1:10)							Last Time (1:28)
F---------------------------------------------------------------|------------------|
C----------------4----------------3---------------1-------------|------------------|
G-----------------------------------------------------------6\\\|------------------|
C-11-111-111-134---11-111-111-134---11-111-111-134---11-111-----|-11-111-111-11111-|

Chorus (1:32)
Verse (1:39)

Post Chorus (2:19)
F-------------------------------------|
C-------------------------------------|
G-------------------------------------|
C6~--8~--1-1--1-1-1--1-1-1--1-3-3-4-|

Pre Verse (2:37)
F------------------------------|
C------------------------------|
G------------------------------|
C-1-1-1-1-3-1-1-3-1-3-1-3-4----|

Verse (2:48)
Chorus (3:07)
Post Chorus (3:28)
Pre Verse (3:44)

Heavy Riff (3:54)			Last Time
F----------------------------------|-----------------------------------|
C----------------------------------|-----------------------------------|
G----------------------------------|-----------------------------------|
C-1-1-1-1-3-1-1-3-1-3-1-3-4-4-4-4--|--1-1-1-1-3-1-1-3-1-3-1-4-3-3-3-3--|

End with Pre Verse





Comments


Popular 36 Crazy Fists tabs & chords
Bloodwork Bass Tabs
Chalk White Bass Tabs
Dislocate Bass Tabs
Slit Wrist Theory 2 Bass Tabs
Bloodwork Chords
Between The Anchor And The Air Intro Tabs
Felt Through A Phone Line Intro Tabs
Left Hand Charity 1 Tabs
Mother Mary Tabs
On Any Given Night Tabs


Song lyrics



↑ Back to top | Tablatures and chords are parodies/interpretations of the original songs. You may use it for private study, scholarship, research or language learning purposes only
© 2014 AZChords.com Contact us | Privacy policy | DMCA | Add/correct tabs | Request tabs | Top 50 tabs