» » »

36 Crazy Fists, Installing The Catheter Tabs (ver.1)

Artists:  A B C D E F G H I J K L M N O P Q R S T U V W X Y Z # 

Installing The Catheter Tabs (ver.1)

36 Crazy Fists Tabs
 Rating:
4/5 (4 votes)
Installing The Catheter lessons Tabs too difficult? Try these video lessons and learn fast
                I havn’t tabbed the bit after the chorus “I’m ready for the bottom, the bottom of you”
Bit.  Should be done in a week or so.  If you want any other 36CF tabs that aren’t on 
MX tabs let me know by E-mail and I will tab it for you.


Intro: Clean with light Phaser (EHX Small Stone)

D|---------------|
A|---------------|
F|-------4-4-----|   x4
C|----0------0---|
G|--2------------|
C|---------------|
   |----------|
      Let Ring

Chorus/Riff 2.  With Overdrive

D|-------------------------------|
A|---------------33333-----------|
F|-6666666666/88-22222-999/11-11-|
C|-4444444444/66-00000-777/9--9--|
G|-4444444444/66-00000-777/9--9--|
C|-4444444444/66-00000-777/9--9--|

Pre Chorus.  With Overdrive

D|-------------------------------------------------|
A|-------------------------------------------------|
F|-11-11-11-11-11-11-11-11--14-14----11-11-11-11-11|
C|-x—-x—-x--x—-x--x—-x--x---x---x----x--x—-x--x—-x-|
G|-9—-9--9—-9--9—-9—-9--9---12-12----9—-9—-9—-9--9-|
C|-0—-0—-0—-0--0—-0—-0--0---0--0-----0--0—-0—-0--0-|

Fill 1

D|---------|
A|---------|
F|------4--|
C|----0----|
G|--2------|
C|---------|
   |-----|
  Let Ring










Interlude: Clean, With Reverb

D|----------------------------------------------------------|
A|----------------------------------------------------------|
F|----6---6---6---6---6------2---1---2---4---2---1----------|
C|--0---0---0---0---0----0-0---0---0---0---0---0------------|
G|----------------------------------------------------------|
C|----------------------------------------------------------|








Riff 6, With Overdrive

D|--------------------------------------------|
A|--------------------------------------------|
F|-6-----------6--6------------7-7--0-000-000-|
C|-x-0-000-000-x--x-0-000-000--x-x--0-000-000-|  X2
G|-4-0-000-000-4--4-0-000-000--5-5--0-000-000-|
C|---0-000-000------0-000-000-------0-000-000-|

Breakdown 1, Clean 

D|---------------------|
A|---------------------|
F|---------------------|  x2
C|---------------------|
G|---------------------|
C|-0-000-000-0-000-000-|


Fill, With Overdrive

D|---|
A|---|
F|---|
C|-0-|
G|-0-|
C|-0-|

Breakdown 2,  (Part 1) With Overdrive

D|-------------------------------------------------|
A|-------------------------------------------------|
F|-----------------------------------------6/7-7/4-|  
C|-0-0-000-000-0-0-000-000-0-0-000-000-0-0-x/x-x/x-|  
G|-0-0-000-000-0-0-000-000-0-0-000-000-0-0-4/5-5/2-|
C|-0-0-000-000-0-0-000-000-0-0-000-000-0-0---------|

Breakdown 2, (Part 2) With Overdrive

D|-----------------------------|
A|-----------------------------|
F|---------------------------6-|  x1 repeat again after part 1
C|-0-0-000-000-0-0-000-000---x-|
G|-0-0-000-000-0-0-000-000---4-|
C|-0-0-000-000-0-0-000-000-----|
            
Submit corrections

comments powered by Disqus
↑ Back to top | 36 Crazy Fists Tabs for Installing The Catheter. Lyrics for acoustic guitar and electric guitar. Tablatures and chords are parodies/interpretations of the original songs. You may use it for private study, scholarship, research or language learning purposes only