>
 >
I'll Go Until My Heart Stops

I'll Go Until My Heart Stops Guitar Tabs

36 Crazy Fists - I'll Go Until My Heart Stops chords, tabs, tablatures, lyrics

Guitar lessons | Add/correct | Request | Top 50 tabs Artists:  A B C D E F G H I J K L M N O P Q R S T U V W X Y Z 0-9

I'll Go Until My Heart Stops Guitar Tabs – 36 Crazy Fists

CD, Sheet music, Poster

Do you like I'll Go Until My Heart Stops? Share with your friends now
Tabs
36 Crazyfist
Rest Inside The Flames
Drop C- CGCFAD


"BETWEEN THE SEASONS WE FIND ROOM!!!"
-Intro-
Gtr 1,2
D|------------------------------------------------------------------|
A|------------------------------------------------------------------|
F|------------------------------------------------------------------|
C|-4-4-4-------4-4-4-------4-4-----6-6-6-------6-6-6-------6-6------|
G|-4-4-4-5-5-5-4-4-4-5-5-5-4-4-5-4-6-6-6-7-7-7-6-6-6-7-7-7-6-6-9*~~-|
C|-4-4-4-------4-4-4-------4-4-----6-6-6-------6-6-6-------6-6------|

D|------------------------------------------------------------------|
A|------------------------------------------------------------------|
F|------------------------------------------------------------------|
C|-4-4-4-------4-4-4-------4-4-----6-6-6-------6-6-6-------6-6-9~-7-|
G|-4-4-4-5-5-5-4-4-4-5-5-5-4-4-5-4-6-6-6-7-7-7-6-6-6-7-7-7-6-6-9~-7-|
C|-4-4-4-------4-4-4-------4-4-----6-6-6-------6-6-6-------6-6-9~-7-|


-Verse-
Gtr 1- Low Dist.
D|-----------------------------------------------------------------|
A|-----------------------------------------------------------------|
F|-----------------------------------------------------------------|
C|-----------------------------------------------------------------|
G|-----------------------------------------------------------------|
C|-4-6-4-6-4-6-4-6-4-6-4-6-4-6-4-6-2--4--6-4-6-4-6-4-6-4-6-4-6-4-6-|
"And I like the way your lips turned, legendary...
                                                             Gtr 1,2- Full Dist.
D|-----------------------------------------------------------|-------|
A|-----------------------------------------------------------|-------|
F|-----------------------------------------------------------|-------|
C|-----------------------------------------------------------|-6/7-7-|
G|-----------------------------------------------------------|-6/7-7-|
C|-4-6-4-6-4-6-4-6-4-6-4-6-4-6-4-6-2--4--6-4-6-4-6-4-6-4-6-4-|-6/7-7-|
...And I like how the sun will, come to light...

D|----------------------------------------------------------|
A|----------------------------------------------------------|
F|-11-11-11-11-11-11-11-11-11-11-11-11-11-11-11-11\9-9-9-9/-|
C|-x--x--x--x--x--x--x--x--x--x--x--x--x--x--x---x-x-x-x-x--|
G|-9--9--9--9--9--9--9--9--9--9--9--9--9--9--9---9\7-7-7-7/-|
C|----------------------------------------------------------|
...AND I LIKE THE WAY YOUR LIPS TURNED!!!

D|----------------------------------------------------------|
A|----------------------------------------------------------|
F|-13-13-13-13-13-13-13-13-13-13-13-13-13-13-13-13\9-9-9-9/-|
C|-x--x--x--x--x--x--x--x--x--x--x--x--x--x--x--x--x-x-x-x--|
G|-11-11-11-11-11-11-11-11-11-11-11-11-11-11-11-11\7-7-7-7/-|
C|----------------------------------------------------------|
...LEGENDARY!!!

D|----------------------------------------------------------|
A|----------------------------------------------------------|
F|-11-11-11-11-11-11-11-11-11-11-11-11-11-11-11-11\9-9-9-9/-|
C|-x--x--x--x--x--x--x--x--x--x--x--x--x--x--x---x-x-x-x-x--|
G|-9--9--9--9--9--9--9--9--9--9--9--9--9--9--9---9\7-7-7-7/-|
C|----------------------------------------------------------|
...AND I LIKE HOW THE SUN WILL!!!

D|-------------------------------------------------|
A|-------------------------------------------------|
F|-13-13-13-13-13-13-13-13-16-16-16-16-16-16-16-16-|
C|-x--x--x--x--x--x--x--x--x--x--x--x--x--x--x--x--|
G|-11-11-11-11-11-11-11-11-14-14-14-14-14-14-14-14-|
C|-------------------------------------------------|
...COME TO LIGHT!!!

D|-----------------------------------------------------------|
A|-----------------------------------------------------------|
F|-6-6-6-6-6-6-6-6-6-6-6-6-6-6-6-6-6-6-6-6-6-6-6-6-6-6-6-6-6-|
C|-6-6-6-6-6-6-6-6-6-6-6-6-6-6-6-6-6-6-6-6-6-6-6-6-6-6-6-6-6-|
G|-4-4-4-0-0-0-4-4-4-0-0-0-4-4-0-0-4-4-4-0-0-0-4-4-4-0-0-0-4-|
C|-----------------------------------------------------------|
...BUT IT WON'T BE LONG UNTIL ITS YOUR VERY LAST!!!"


-Pre Chorus-
D|------------------------------------------------------------------|
A|------------------------------------------------------------------|
F|------------------------------------------------------------------|
C|-4-4-4-------4-4-4-------4-4-----6-6-6-------6-6-6-------6-6------|
G|-4-4-4-5-5-5-4-4-4-5-5-5-4-4-5-4-6-6-6-7-7-7-6-6-6-7-7-7-6-6-9*~~-|
C|-4-4-4-------4-4-4-------4-4-----6-6-6-------6-6-6-------6-6------|
"GOODBYE!!! DECIDE!!! TO MAKE IT!!!

D|-------------------------------------------------------------|
A|-------------------------------------------------------------|
F|-------------------------------------------------------------|
C|-4-4-4-------4-4-4-------4-4-----6-6-6-6-6-6-7-7-7-7-9-9-9-9-|
G|-4-4-4-5-5-5-4-4-4-5-5-5-4-4-5-4-6-6-6-6-6-6-7-7-7-7-9-9-9-9-|
C|-4-4-4-------4-4-4-------4-4-----6-6-6-6-6-6-7-7-7-7-9-9-9-9-|
...HARD!!! To find but make it"


-Chorus-
D|-------------------------------------------------|
A|-------------------------------------------------|
F|-------------------------------------------------|
C|-11-11-11-11-11-11-11-11-14-14-14-14-12-12-12-12-|
G|-11-11-11-11-11-11-11-11-11-11-11-11-11-11-11-11-|
C|-11-11-11-11-11-11-11-11-11-11-11-11-11-11-11-11-|
"AND IF YOU!!!

D|----------------------------------------|
A|----------------------------------------|
F|----------------------------------------|
C|-11-11-11-11-11-11-11-11-14-14-14-14-12-|
G|-11-11-11-11-11-11-11-11-11-11-11-11-11-|
C|-11-11-11-11-11-11-11-11-11-11-11-11-11-|
...DECIDE THAT YOU!!!

Gtr 1
D|-------------------------------------------------------------------|
A|-------------------------------------------------------------------|
F|-------------------------------------------------------------------|
C|-7--7--7--7--7--7--7--7--7--7--7--7--4--4--4--4--4--4--2-2-2-2-2-2-|
G|-7--7--7--7--7--7--7--7--7--7--7--7--4--4--4--4--4--4--2-2-2-2-2-2-|
C|-7--7--7--7--7--7--7--7--7--7--7--7--4--4--4--4--4--4--2-2-2-2-2-2-|
Gtr 2
D|-------------------------------------------------------------------|
A|-------------------------------------------------------------------|
F|-16-16-16-16-16-16-16-16-14-14-13-16-16-16-16-16-16-16-16-14-14-13-|
C|-x--x--x--x--x--x--x--x--x--x--x--x--x--x--x--x--x--x--x--x--x--x--|
G|-14-14-14-14-14-14-14-14-12-12-11-14-14-14-14-14-14-14-14-12-12-11-|
C|-------------------------------------------------------------------|
...Need a thousand heartaches, a thousand heartaches...

Gtr 1,2
D|----------------------------------------------------------|
A|----------------------------------------------------------|
F|-6-6-6---6-6-6---7-7-7-6---6-6---6-6-6---6-6-6---7-7-7-6~-|
C|-6-6-6---6-6-6---6-6-6-6---6-6---6-6-6---6-6-6---6-6-6-6~-|
G|-4-4-4---4-4-4---4-4-4-4---4-4---4-4-4---4-4-4---4-4-4-4~-|
C|----------------------------------------------------------|
...AND INTO!!! THIS HOTEL ROOM!!!

Gtr 1
D|-------------------------------------------------------------------|
A|-------------------------------------------------------------------|
F|-------------------------------------------------------------------|
C|-7--7--7--7--7--7--7--7--7--7--7--7--4--4--4--4--4--4--2-2-2-2-2-2-|
G|-7--7--7--7--7--7--7--7--7--7--7--7--4--4--4--4--4--4--2-2-2-2-2-2-|
C|-7--7--7--7--7--7--7--7--7--7--7--7--4--4--4--4--4--4--2-2-2-2-2-2-|
Gtr 2
D|-------------------------------------------------------------------|
A|-------------------------------------------------------------------|
F|-16-16-16-16-16-16-16-16-14-14-13-16-16-16-16-16-16-16-16-14-14-13-|
C|-x--x--x--x--x--x--x--x--x--x--x--x--x--x--x--x--x--x--x--x--x--x--|
G|-14-14-14-14-14-14-14-14-12-12-11-14-14-14-14-14-14-14-14-12-12-11-|
C|-------------------------------------------------------------------|
...Was the greatest mistake, the greatest mistake!"


-Verse-
Gtr 1- Low Dist.
D|-----------------------------------------------------------------|
A|-----------------------------------------------------------------|
F|-----------------------------------------------------------------|
C|-----------------------------------------------------------------|
G|-----------------------------------------------------------------|
C|-4-6-4-6-4-6-4-6-4-6-4-6-4-6-4-6-2--4--6-4-6-4-6-4-6-4-6-4-6-4-6-|
"And I want this all to be just neccessary...
                                                             Gtr 1,2- Full Dist.
D|-----------------------------------------------------------|-------|
A|-----------------------------------------------------------|-------|
F|-----------------------------------------------------------|-------|
C|-----------------------------------------------------------|-6/7-7-|
G|-----------------------------------------------------------|-6/7-7-|
C|-4-6-4-6-4-6-4-6-4-6-4-6-4-6-4-6-2--4--6-4-6-4-6-4-6-4-6-4-|-6/7-7-|
...So when the darkness comes, we won't need the light...

D|----------------------------------------------------------|
A|----------------------------------------------------------|
F|-11-11-11-11-11-11-11-11-11-11-11-11-11-11-11-11\9-9-9-9/-|
C|-x--x--x--x--x--x--x--x--x--x--x--x--x--x--x---x-x-x-x-x--|
G|-9--9--9--9--9--9--9--9--9--9--9--9--9--9--9---9\7-7-7-7/-|
C|----------------------------------------------------------|
...AND I WANT THIS ALL TO BE JUST!!!

D|----------------------------------------------------------|
A|----------------------------------------------------------|
F|-13-13-13-13-13-13-13-13-13-13-13-13-13-13-13-13\9-9-9-9/-|
C|-x--x--x--x--x--x--x--x--x--x--x--x--x--x--x--x--x-x-x-x--|
G|-11-11-11-11-11-11-11-11-11-11-11-11-11-11-11-11\7-7-7-7/-|
C|----------------------------------------------------------|
...NECCESSARY!!!

D|----------------------------------------------------------|
A|----------------------------------------------------------|
F|-11-11-11-11-11-11-11-11-11-11-11-11-11-11-11-11\9-9-9-9/-|
C|-x--x--x--x--x--x--x--x--x--x--x--x--x--x--x---x-x-x-x-x--|
G|-9--9--9--9--9--9--9--9--9--9--9--9--9--9--9---9\7-7-7-7/-|
C|----------------------------------------------------------|
...SO WHEN THE DARKNESS COMES!!!

D|-------------------------------------------------|
A|-------------------------------------------------|
F|-13-13-13-13-13-13-13-13-16-16-16-16-16-16-16-16-|
C|-x--x--x--x--x--x--x--x--x--x--x--x--x--x--x--x--|
G|-11-11-11-11-11-11-11-11-14-14-14-14-14-14-14-14-|
C|-------------------------------------------------|
...WE WON'T NEED THE LIGHT!!!

D|-----------------------------------------------------------|
A|-----------------------------------------------------------|
F|-6-6-6-6-6-6-6-6-6-6-6-6-6-6-6-6-6-6-6-6-6-6-6-6-6-6-6-6-6-|
C|-6-6-6-6-6-6-6-6-6-6-6-6-6-6-6-6-6-6-6-6-6-6-6-6-6-6-6-6-6-|
G|-4-4-4-0-0-0-4-4-4-0-0-0-4-4-0-0-4-4-4-0-0-0-4-4-4-0-0-0-4-|
C|-----------------------------------------------------------|
...BUT IT WON'T BE LONG UNTIL ITS YOUR VERY LAST!!!"


-Pre Chorus-
D|------------------------------------------------------------------|
A|------------------------------------------------------------------|
F|------------------------------------------------------------------|
C|-4-4-4-------4-4-4-------4-4-----6-6-6-------6-6-6-------6-6------|
G|-4-4-4-5-5-5-4-4-4-5-5-5-4-4-5-4-6-6-6-7-7-7-6-6-6-7-7-7-6-6-9*~~-|
C|-4-4-4-------4-4-4-------4-4-----6-6-6-------6-6-6-------6-6------|
"GOODBYE!!! DECIDE!!! TO MAKE IT!!!

D|-------------------------------------------------------------|
A|-------------------------------------------------------------|
F|-------------------------------------------------------------|
C|-4-4-4-------4-4-4-------4-4-----6-6-6-6-6-6-7-7-7-7-9-9-9-9-|
G|-4-4-4-------4-4-4-------4-4-----6-6-6-6-6-6-7-7-7-7-9-9-9-9-|
C|-4-4-4-------4-4-4-------4-4-----6-6-6-6-6-6-7-7-7-7-9-9-9-9-|
...Between the seasons we find ROOM!!!"


-Chorus-
D|-------------------------------------------------|
A|-------------------------------------------------|
F|-------------------------------------------------|
C|-11-11-11-11-11-11-11-11-14-14-14-14-12-12-12-12-|
G|-11-11-11-11-11-11-11-11-11-11-11-11-11-11-11-11-|
C|-11-11-11-11-11-11-11-11-11-11-11-11-11-11-11-11-|
"AND IF YOU!!!

D|----------------------------------------|
A|----------------------------------------|
F|----------------------------------------|
C|-11-11-11-11-11-11-11-11-14-14-14-14-12-|
G|-11-11-11-11-11-11-11-11-11-11-11-11-11-|
C|-11-11-11-11-11-11-11-11-11-11-11-11-11-|
...DECIDE THAT YOU!!!

Gtr 1
D|-------------------------------------------------------------------|
A|-------------------------------------------------------------------|
F|-------------------------------------------------------------------|
C|-7--7--7--7--7--7--7--7--7--7--7--7--4--4--4--4--4--4--2-2-2-2-2-2-|
G|-7--7--7--7--7--7--7--7--7--7--7--7--4--4--4--4--4--4--2-2-2-2-2-2-|
C|-7--7--7--7--7--7--7--7--7--7--7--7--4--4--4--4--4--4--2-2-2-2-2-2-|
Gtr 2
D|-------------------------------------------------------------------|
A|-------------------------------------------------------------------|
F|-16-16-16-16-16-16-16-16-14-14-13-16-16-16-16-16-16-16-16-14-14-13-|
C|-x--x--x--x--x--x--x--x--x--x--x--x--x--x--x--x--x--x--x--x--x--x--|
G|-14-14-14-14-14-14-14-14-12-12-11-14-14-14-14-14-14-14-14-12-12-11-|
C|-------------------------------------------------------------------|
...Need a thousand heartaches, a thousand heartaches...

Gtr 1,2
D|----------------------------------------------------------|
A|----------------------------------------------------------|
F|-6-6-6---6-6-6---7-7-7-6---6-6---6-6-6---6-6-6---7-7-7-6~-|
C|-6-6-6---6-6-6---6-6-6-6---6-6---6-6-6---6-6-6---6-6-6-6~-|
G|-4-4-4---4-4-4---4-4-4-4---4-4---4-4-4---4-4-4---4-4-4-4~-|
C|----------------------------------------------------------|
...AND INTO!!! THIS HOTEL ROOM!!!

Gtr 1
D|-------------------------------------------------------------------|
A|-------------------------------------------------------------------|
F|-------------------------------------------------------------------|
C|-7--7--7--7--7--7--7--7--7--7--7--7--4--4--4--4--4--4--2-2-2-2-2-2-|
G|-7--7--7--7--7--7--7--7--7--7--7--7--4--4--4--4--4--4--2-2-2-2-2-2-|
C|-7--7--7--7--7--7--7--7--7--7--7--7--4--4--4--4--4--4--2-2-2-2-2-2-|
Gtr 2
D|-------------------------------------------------------------------|
A|-------------------------------------------------------------------|
F|-16-16-16-16-16-16-16-16-14-14-13-16-16-16-16-16-16-16-16-14-14-13-|
C|-x--x--x--x--x--x--x--x--x--x--x--x--x--x--x--x--x--x--x--x--x--x--|
G|-14-14-14-14-14-14-14-14-12-12-11-14-14-14-14-14-14-14-14-12-12-11-|
C|-------------------------------------------------------------------|
...Was the greatest mistake, the greatest mistake!"


-Breakdown-
Gtr 1,2
D|---------------|
A|---------------|
F|---------------|
C|-0~~-0~~-0~~-0-|
G|-0~~-0~~-0~~-0-|
C|-0~~-0~~-0~~-0-|

D||-------------------------------------------------------------||
A||o-----------------------------------------------------------o||
F||-------------------------------------------------------------||
C||-------------------------------------------------------------||
G||o-0-0-0-0---0-0-0-0---0-0-0-0---0-0-0-0---0-0-0-0---0-0-0-0-o||
C||--0-0-0-0---0-0-0-0---0-0-0-0---0-0-0-0---0-0-0-0---0-0-0-0--||
     - - - -   - - - -   - - - -   - - - -   - - - -   - - - -

D|---------------------------------------|
A|---------------------------------------|
F|---------------------------------------|
C|---------------------------------------|
G|-0-0-0-0---0-0-0-0---0-0-0-0---0-0-0-0-|
C|-0-0-0-0---0-0-0-0---0-0-0-0---0-0-0-0-|
   - - - -   - - - -   - - - -   - - - -

D||---------------------------------------------------------------||
A||o-------------------------------------------------------------o||
F||---------------------------------------------------------------||
C||---------------------------------------------------------------||
G||o-0-0-0-0~~-0-0-0-0~~-0-0-0-0~~-0-0-0-0~~-0-0-0-0~~-0-0-0-0~~-o||
C||--0-0-0-0~~-0-0-0-0~~-0-0-0-0~~-0-0-0-0~~-0-0-0-0~~-0-0-0-0~~--||
     - - - -   - - - -   - - - -   - - - -   - - - -   - - - -
-"THIS IS AS REAL AS IT GETS!!!
-WITH WEAPONS IN HANDS!!!

D|---------------------------------------|
A|---------------------------------------|
F|---------------------------------------|
C|---------------------------------------|
G|-0-0-0-0~~-0-0-0-0~~-0-0-0-0~~-0-0-0-0-|
C|-0-0-0-0~~-0-0-0-0~~-0-0-0-0~~-0-0-0-0-|
   - - - -   - - - -   - - - -   - - - -
...WE OPT TO NOT LAY! DOWN! OUR!

D|-----------------------------------------------------------------------|
A|-----------------------------------------------------------------------|
F|-13\-----------------------------/13\----------------------------------|
C|-x--------------------------------x-------------------------------/11\-|
G|-11\-0-0-0-0---0-0-0-0---0-0-0-0-/11\-0-0-0-0---0-0-0-0---0-0-0-0-/11\-|
C|-----0-0-0-0---0-0-0-0---0-0-0-0------0-0-0-0---0-0-0-0---0-0-0-0-/11\-|
       - - - -   - - - -   - - - -      - - - -   - - - -   - - - -
...GUUUUUUUUUUUNS!!!

D|-------------------------------------------------------------|
A|-------------------------------------------------------------|
F|-----------------------------/13\----------------------------|
C|------------------------------x-------------------7--------9-|
G|-0-0-0-0---0-0-0-0---0-0-0-0-/11\-0-0-0-0---0-0-0-7--0-0-0-9-|
C|-0-0-0-0---0-0-0-0---0-0-0-0------0-0-0-0---0-0-0-7--0-0-0-9-|
   - - - -   - - - -   - - - -      - - - -   - - -    - - -


-Chorus-
Gtr 1- Clean
D|-------------------------------------------------|
A|-------------------------------------------------|
F|-------------------------------------------------|
C|-11-11-11-11-11-11-11-11-14-14-14-14-12-12-12-12-|
G|-11-11-11-11-11-11-11-11-11-11-11-11-11-11-11-11-|
C|-11-11-11-11-11-11-11-11-11-11-11-11-11-11-11-11-|
"And if you...

D|----------------------------------------|
A|----------------------------------------|
F|----------------------------------------|
C|-11-11-11-11-11-11-11-11-14-14-14-14-12-|
G|-11-11-11-11-11-11-11-11-11-11-11-11-11-|
C|-11-11-11-11-11-11-11-11-11-11-11-11-11-|
...Decide that you...

Gtr 1- Dist.
D|-------------------------------------------------------------------|
A|-------------------------------------------------------------------|
F|-------------------------------------------------------------------|
C|-7--7--7--7--7--7--7--7--7--7--7--7--4--4--4--4--4--4--2-2-2-2-2-2-|
G|-7--7--7--7--7--7--7--7--7--7--7--7--4--4--4--4--4--4--2-2-2-2-2-2-|
C|-7--7--7--7--7--7--7--7--7--7--7--7--4--4--4--4--4--4--2-2-2-2-2-2-|
Gtr 2
D|-------------------------------------------------------------------|
A|-------------------------------------------------------------------|
F|-16-16-16-16-16-16-16-16-14-14-13-16-16-16-16-16-16-16-16-14-14-13-|
C|-x--x--x--x--x--x--x--x--x--x--x--x--x--x--x--x--x--x--x--x--x--x--|
G|-14-14-14-14-14-14-14-14-12-12-11-14-14-14-14-14-14-14-14-12-12-11-|
C|-------------------------------------------------------------------|
...Need a thousand heartaches, a thousand heartaches...

Gtr 1,2
D|----------------------------------------------------------|
A|----------------------------------------------------------|
F|-6-6-6---6-6-6---7-7-7-6---6-6---6-6-6---6-6-6---7-7-7-6~-|
C|-6-6-6---6-6-6---6-6-6-6---6-6---6-6-6---6-6-6---6-6-6-6~-|
G|-4-4-4---4-4-4---4-4-4-4---4-4---4-4-4---4-4-4---4-4-4-4~-|
C|----------------------------------------------------------|
...AND INTO!!! THIS HOTEL ROOM!!!

Gtr 1
D|-------------------------------------------------------------------|
A|-------------------------------------------------------------------|
F|-------------------------------------------------------------------|
C|-7--7--7--7--7--7--7--7--7--7--7--7--4--4--4--4--4--4--2-2-2-2-2-2-|
G|-7--7--7--7--7--7--7--7--7--7--7--7--4--4--4--4--4--4--2-2-2-2-2-2-|
C|-7--7--7--7--7--7--7--7--7--7--7--7--4--4--4--4--4--4--2-2-2-2-2-2-|
Gtr 2
D|-------------------------------------------------------------------|
A|-------------------------------------------------------------------|
F|-16-16-16-16-16-16-16-16-14-14-13-16-16-16-16-16-16-16-16-14-14-13-|
C|-x--x--x--x--x--x--x--x--x--x--x--x--x--x--x--x--x--x--x--x--x--x--|
G|-14-14-14-14-14-14-14-14-12-12-11-14-14-14-14-14-14-14-14-12-12-11-|
C|-------------------------------------------------------------------|
...Was the greatest mistake, the greatest mistake!"

D||------------------------------------------------------||
A||o----------------------------------------------------o||
F||------------------------------------------------------||
C||--11-11-11-11-11-11-11-11-----------------------------||
G||o-11-11-11-11-11-11-11-11----------------------------o||
C||--11-11-11-11-11-11-11-11-14-14-14-12-12-12-11-11-11--||

D|-------------------------------------------------|
A|-------------------------------------------------|
F|-------------------------------------------------|
C|-7-7-7-7-7-7-7-7-7-7-7-7-4-4-4-4-4-4-2-2-2-2-2-2-|
G|-7-7-7-7-7-7-7-7-7-7-7-7-4-4-4-4-4-4-2-2-2-2-2-2-|
C|-7-7-7-7-7-7-7-7-7-7-7-7-4-4-4-4-4-4-2-2-2-2-2-2-|
"Between the seasons we find room to breathe out...

D||------------------------------------------------------||
A||o----------------------------------------------------o||
F||------------------------------------------------------||
C||--11-11-11-11-11-11-11-11-----------------------------||
G||o-11-11-11-11-11-11-11-11----------------------------o||
C||--11-11-11-11-11-11-11-11-14-14-14-12-12-12-11-11-11--||

D|-------------------------------------------------|
A|-------------------------------------------------|
F|-------------------------------------------------|
C|-7-7-7-7-7-7-7-7-7-7-7-7-4-4-4-4-4-4-2-2-2-2-2-2-|
G|-7-7-7-7-7-7-7-7-7-7-7-7-4-4-4-4-4-4-2-2-2-2-2-2-|
C|-7-7-7-7-7-7-7-7-7-7-7-7-4-4-4-4-4-4-2-2-2-2-2-2-|
...Between the seasons we find room to breathe out"


Gtr 1 (build up)
D|---------------------------------------------------|
A|---------------------------------------------------|
F|-6-6-6-6-6-6-6-6-6-6-6-6-6-6-6-6-6-6-6-6-6-6-6-6-6-|
C|-x-x-x-x-x-x-x-x-x-x-x-x-x-x-x-x-x-x-x-x-x-x-x-x-x-|
G|-4-4-4-4-4-4-4-4-4-4-4-4-4-4-4-4-4-4-4-4-4-4-4-4-4-|
C|---------------------------------------------------|


-Outro-
Gtr 1,2
D|-------------------------------------------------|
A|-------------------------------------------------|
F|-------------------------------------------------|
C|-11-11-11-11-11-11-11-11-14-14-14-14-12-12-12-12-|
G|-11-11-11-11-11-11-11-11-11-11-11-11-11-11-11-11-|
C|-11-11-11-11-11-11-11-11-11-11-11-11-11-11-11-11-|
"AND IF YOU!!!

D|-----------------------------------------------------------------------|
A|-----------------------------------------------------------------------|
F|-----------------------------------------------------------------------|
C|-11-11-11-11-11-11-11-11-14-14-14-14-12-12-12-12--------2-0--------2-0-|
G|-11-11-11-11-11-11-11-11-11-11-11-11-11-11-11-11--------2-0--------2-0-|
C|-11-11-11-11-11-11-11-11-11-11-11-11-11-11-11-11-2b===r-2-0-2b===r-2-0-|
...DECIDE THAT YOU!!!

D|-------------------------------------------------|
A|-------------------------------------------------|
F|-------------------------------------------------|
C|-11-11-11-11-11-11-11-11-14-14-14-14-12-12-12-12-|
G|-11-11-11-11-11-11-11-11-11-11-11-11-11-11-11-11-|
C|-11-11-11-11-11-11-11-11-11-11-11-11-11-11-11-11-|
...AND IF YOU!!!

D|-----------------------------------------------------------------------|
A|-----------------------------------------------------------------------|
F|-----------------------------------------------------------------------|
C|-11-11-11-11-11-11-11-11-14-14-14-14-12-12-12-12--------2-0--------2-0-|
G|-11-11-11-11-11-11-11-11-11-11-11-11-11-11-11-11--------2-0--------2-0-|
C|-11-11-11-11-11-11-11-11-11-11-11-11-11-11-11-11-2b===r-2-0-2b===r-2-0-|
...DECIDE THAT YOU!!!

D|---------------------------------------------------|
A|---------------------------------------------------|
F|---------------------------------------------------|
C|-14~~~~~~~~~~~~~~~~~~~~~~~~~~~~~~~~~~~~~~~~~~~~~~~-|
G|-11~~~~~~~~~~~~~~~~~~~~~~~~~~~~~~~~~~~~~~~~~~~~~~~-|
C|-11~~~~~~~~~~~~~~~~~~~~~~~~~~~~~~~~~~~~~~~~~~~~~~~-|
...DECIIIIIIIIIIIIIIIDE!!!"





Comments


Popular 36 Crazy Fists tabs & chords
Bloodwork Chords
Between The Anchor And The Air Tabs
Between The Anchor And The Air Intro Tabs
Chalk White Tabs
Cure Eclipse Tabs
Eightminutesupsidedown 1 Tabs
Installing The Catheter Tabs
On Any Given Night Tabs
Skin And Atmosphere Tabs
Song For The Fisherman Tabs


Song lyrics



↑ Back to top | Tablatures and chords are parodies/interpretations of the original songs. You may use it for private study, scholarship, research or language learning purposes only
© 2014 AZChords.com Contact us | Privacy policy | DMCA | Add/correct tabs | Request tabs | Top 50 tabs