>
 >
Felt Through A Phone Line

Felt Through A Phone Line Guitar Tabs

36 Crazy Fists - Felt Through A Phone Line chords, tabs, tablatures, lyrics

Guitar lessons | Add/correct | Request | Top 50 tabs Artists:  A B C D E F G H I J K L M N O P Q R S T U V W X Y Z 0-9

Felt Through A Phone Line Guitar Tabs – 36 Crazy Fists

CD, Sheet music, Poster

Do you like Felt Through A Phone Line? Share with your friends now
Tabs
36 Crazyfists
Rest Inside The Flames
Drop C Tuning- CGCFAD


-Intro-
Gtr 2- Clean
D||--------------------------------------------------------------||
A||o--10---10---10---10---8---8---8---8---6---6---6---6---6---6-o||
F||-9----9----9----9----9---9---9---9---9---9---9---9---9---9----||
C||--------------------------------------------------------------||
G||o------------------------------------------------------------o||
C||--------------------------------------------------------------||

*Alternate Live Intro- Distortion
D||---------------------------------------------------||
A||o-10-10-10-10-10-10--8-8-8-8-8-8--6-6-6-6-6-6-6-6-o||
F||--9--9--9--9--9--9---9-9-9-9-9-9--9-9-9-9-9-9-9-9--||
C||---------------------------------------------------||
G||o-------------------------------------------------o||
C||---------------------------------------------------||

Gtr 1,2- Distortion
D|---------------------------------------------|
A|---------------------------------------------|
F|-5-5-5-5-5-5-5-5-5/7-7-7/2-2-2-2-2-2-2-2-7-7-|
C|-3-3-3-3-3-3-3-3-3/5-5-5/0-0-0-0-0-0-0-0-5-5-|
G|-3-3-3-3-3-3-3-3-3/5-5-5/0-0-0-0-0-0-0-0-5-5-|
C|-3-3-3-3-3-3-3-3-3/5-5-5/0-0-0-0-0-0-0-0-5-5-|
“So we went... After the crash...We stepped out alone

D|--------------------------------------------------------------|
A|--------------------------------------------------------------|
F|-5-5-5-5-5-5-5-5-5-5-5-5-5/7-7-7-9-9-9-9/11-11-11-11/12-12-12-|
C|-3-3-3-3-3-3-3-3-3-3-3-3-3/5-5-5-7-7-7-7/9--9--9--9-/10-10-10-|
G|-3-3-3-3-3-3-3-3-3-3-3-3-3/5-5-5-7-7-7-7/9--9--9--9-/10-10-10-|
C|-3-3-3-3-3-3-3-3-3-3-3-3-3/5-5-5-7-7-7-7/9--9--9--9-/10-10-10-|
“An undivided healing...   That swallows us”

D|------------------------------------|
A|------6~~~~~~~--------------3~~~~~~-|
F|------5~~~~~~~--------------2~~~~~~-|
C|-3~~--3~~~~~~~--2~~~~--0~~--0~~~~~~-|
G|-3~~~~~~~~~~~~--2~~~~--0~~~~~~~~~~~-|
C|-3~~~~~~~~~~~~--2~~~~--0~~~~~~~~~~~-|
“Whole... ohh... oh”

Gtr 2- Clean    
D|-------------------------------------------------------------|
A|-------------------------------------------------------------|
F|-----9--------9-----9--------9-----9--------9-----9--------9-|
C|---7---7----7-----7---7----7-----7---7----7-----7---7----7---|
G|-7--------7-----7--------7-----5--------5-----5--------5-----|
C|-------------------------------------------------------------|
“The air cuts like glass
...And you taste like winter
...And how long will you last, forever?”


-Verse- x4
Gtr 1,2- Distortion
D||----------------------------------------||
A||o--------------------------------------o||
F||------9------9--9-9------9------9--9-9--||
C||--7-7-7--7-7-7--7-7--5-5-5--5-5-5--5-7--||
G||o-7-7-7--7-7-7--7-7--5-5-5--5-5-5--5-7-o||
C||----------------------------------------||
    pm -    - -         - -    - -
“And congratulations
...You've become what you wanted
...Stepping out of that car
...With that look in your eye
...And knowing that"

Gtr 1
D|-----------------------|
A|-----------------------|
F|-----------------------|
C|-3~~~~~~~~~-0~~~~~~~~~-|
G|-3~~~~~~~~~-0~~~~~~~~~-|
C|-3~~~~~~~~~-0~~~~~~~~~-|
Gtr 2
D|-----------------------|
A|-----5~------5~--------|
F|---5~-----------5~~~~~-|
C|-----------------------|
G|-3~--------0~----------|
C|-----------------------|
“You never looked so beautiful”


-Chorus-
D||--------------------------------------------------||
A||o-------------------------------------------6~---o||
F||---------9~~-----------------------9~~---------9--||
C||---------x-------------------------x--------------||
G||o-0-0-0--7~~--0---0-0-0-----0-0-0--7~~--0-0------o||
C||--0-0-0-------0---0-0-0-----0-0-0-------0-0-------||
     pm- -       -   - - -     - - -       - -
“TELEPHONE LINES AWAY,
DEATH ON THE END AND I'M SCREAMING!
226 ON THE DOOR,
ASKING TO MAKE OUT WHILE WATCHING THE WAR!"

D|---------------------------------------------|
A|---------------------------------------------|
F|-5-5-5-5-5-5-5-5-5/7-7-7/2-2-2-2-2-2-2-2-7-7-|
C|-3-3-3-3-3-3-3-3-3/5-5-5/0-0-0-0-0-0-0-0-5-5-|
G|-3-3-3-3-3-3-3-3-3/5-5-5/0-0-0-0-0-0-0-0-5-5-|
C|-3-3-3-3-3-3-3-3-3/5-5-5/0-0-0-0-0-0-0-0-5-5-|
“So we went... After the crash...We stepped out alone

D|--------------------------------------------------------------|
A|--------------------------------------------------------------|
F|-5-5-5-5-5-5-5-5-5-5-5-5-5/7-7-7-9-9-9-9/11-11-11-11/12-12-12-|
C|-3-3-3-3-3-3-3-3-3-3-3-3-3/5-5-5-7-7-7-7/9--9--9--9-/10-10-10-|
G|-3-3-3-3-3-3-3-3-3-3-3-3-3/5-5-5-7-7-7-7/9--9--9--9-/10-10-10-|
C|-3-3-3-3-3-3-3-3-3-3-3-3-3/5-5-5-7-7-7-7/9--9--9--9-/10-10-10-|
“An undivided healing...   That swallows us”

D|-------------------------------------------------|
A|---6-----6-----6-----6-----5-----5-----5-----5---|
F|-----9-----9-----9-----9-----7-----7-----7-----7-|
C|-9-----9-----9-----9-----7-----7-----7-----7-----|
G|-------------------------------------------------|
C|-------------------------------------------------|
“NOTHING’S LIKE THIS EXIT! PALE WHITE SKIN ON MEMORY!”

D|-------------------------------------------|
A|---6-----6-----6-----6---10---10---12---13-|
F|-----9-----9-----9-----9----9----9----9----|
C|-9-----9-----9-----9-----------------------|
G|-------------------------------------------|
C|-------------------------------------------|
“NOTHING’S LIKE THIS EXIT! PALE WHITE SKIN ON MEMORY!”


-Interlude-
Gtr 2- Clean
D|-------------------------------------------------------------|
A|-------------------------------------------------------------|
F|-----9--------9-----9--------9-----9--------9-----9--------9-|
C|---7---7----7-----7---7----7-----7---7----7-----7---7----7---|
G|-7--------7-----7--------7-----5--------5-----5--------5-----|
C|-------------------------------------------------------------|

Bass
F|-----------------------------------------|
C|-2-2--2~----0-0--0~----2-2--2~---0-0--0~-|
G|-----------------------------------------|
C|-----------------------------------------|
Gtr 2- Clean
D|-------------------------------------------------------------|
A|-------------------------------------------------------------|
F|-----9--------9-----9--------9-----9--------9-----9--------9-|
C|---7---7----7-----7---7----7-----7---7----7-----7---7----7---|
G|-7--------7-----7--------7-----5--------5-----5--------5-----|
C|-------------------------------------------------------------|
"And I’ve got the proof, to frame the way.
As we danced, we bled across the floor."


-Verse-
Gtr 1,2- Distortion
D||----------------------------------------||
A||o--------------------------------------o||
F||------9------9--9-9------9------9--9-9--||
C||--7-7-7--7-7-7--7-7--5-5-5--5-5-5--5-7--||
G||o-7-7-7--7-7-7--7-7--5-5-5--5-5-5--5-7-o||
C||----------------------------------------||
     - -    - -         - -    - -
“And that never-ending supply what we wished for
...It took me 14 hours to get this sore
..And no it meant"

Gtr 1
D|-----------------------|
A|-----------------------|
F|-----------------------|
C|-3~~~~~~~~~-0~~~~~~~~~-|
G|-3~~~~~~~~~-0~~~~~~~~~-|
C|-3~~~~~~~~~-0~~~~~~~~~-|
Gtr 2
D|-----------------------|
A|-----5~------5~--------|
F|---5~-----------5~~~~~-|
C|-----------------------|
G|-3~--------0~----------|
C|-----------------------|
“You never looked so beautiful..”

-Chorus-
D||--------------------------------------------------||
A||o-------------------------------------------6~---o||
F||---------9~~-----------------------9~~---------9--||
C||---------x-------------------------x--------------||
G||o-0-0-0--7~~--0---0-0-0-----0-0-0--7~~--0-0------o||
C||--0-0-0-------0---0-0-0-----0-0-0-------0-0-------||
     - - -       -   - - -     - - -       - -
“TELEPHONE LINES AWAY,
DEATH ON THE END AND I'M SCREAMING!
226 ON THE DOOR,
ASKING TO MAKE OUT WHILE WATCHING THE WAR!"

D|---------------------------------------------|
A|---------------------------------------------|
F|-5-5-5-5-5-5-5-5-5/7-7-7/2-2-2-2-2-2-2-2-7-7-|
C|-3-3-3-3-3-3-3-3-3/5-5-5/0-0-0-0-0-0-0-0-5-5-|
G|-3-3-3-3-3-3-3-3-3/5-5-5/0-0-0-0-0-0-0-0-5-5-|
C|-3-3-3-3-3-3-3-3-3/5-5-5/0-0-0-0-0-0-0-0-5-5-|
“So we went... After the crash...  We step out alone

D|--------------------------------------------------------------|
A|--------------------------------------------------------------|
F|-5-5-5-5-5-5-5-5-5-5-5-5-5/7-7-7-9-9-9-9/11-11-11-11/12-12-12-|
C|-3-3-3-3-3-3-3-3-3-3-3-3-3/5-5-5-7-7-7-7/9--9--9--9-/10-10-10-|
G|-3-3-3-3-3-3-3-3-3-3-3-3-3/5-5-5-7-7-7-7/9--9--9--9-/10-10-10-|
C|-3-3-3-3-3-3-3-3-3-3-3-3-3/5-5-5-7-7-7-7/9--9--9--9-/10-10-10-|
“An undivided healing...   That swallows us”

D|-------------------------------------------------|
A|---6-----6-----6-----6-----5-----5-----5-----5---|
F|-----9-----9-----9-----9-----7-----7-----7-----7-|
C|-9-----9-----9-----9-----7-----7-----7-----7-----|
G|-------------------------------------------------|
C|-------------------------------------------------|
“NOTHING’S LIKE THIS EXIT! PALE WHITE SKIN ON MEMORY!”

D|-------------------------------------------|
A|---6-----6-----6-----6---10---10---12---13-|
F|-----9-----9-----9-----9----9----9----9----|
C|-9-----9-----9-----9-----------------------|
G|-------------------------------------------|
C|-------------------------------------------|
“NOTHING’S LIKE THIS EXIT! PALE WHITE SKIN ON MEMORY!”

-Breakdown-
D|-------||--------------------------------------------------------------------||
A|-------||o------------------------------------------------------------------o||
F|--5-5--||--5-5-5--4---5-5-5--4~--5-5-5--5--5-5-5--4--4-4-4--4--4-4-4/5-------||
C|--3-3--||--3-3-3--2---3-3-3--2~--3-3-3--3--3-3-3--2--2-2-2--2--2-2-2/3--0~~--||
G|--3-3--||o-3-3-3--2---3-3-3--2~--3-3-3--3--3-3-3--2--2-2-2--2--2-2-2/3--0~~-o||
C|--3-3--||--3-3-3--2---3-3-3--2~--3-3-3--3--3-3-3--2--2-2-2--2--2-2-2/3--0~~--||
“25 DAYS AND I STILL CAN’T GET THIS RIGHT!”

Gtr 2- Clean
D|-3~-||------3~------3~------5~------3~--||-----|
A|-3~-||o-----3~------3~------5~------3~-o||-----|
F|-5~-||------5~------5~------7~------5~--||-----|
C|-3~-||------3~------3~------5~------3~--||-----|
G|-3~-||o-3-3-3~--3-3-3~--5-5-5~--3-3-3~-o||-3-3-|
C|-3~-||--3-3-3~--3-3-3~--5-5-5~--3-3-3~--||-3-3-|
“So we went...After the crash...We stepped out alone”

D|------7~------7~------9~------9--|
A|------7~------7~------9~------9--|
F|------9~------9~-----11~-----11--|
C|------7~------7~------9~------9--|
G|--7-7-7~--7-7-7~--9-9-9~--9-9-9--|
c|--7-7-7~--7-7-7~--9-9-9~--9-9-9--|
“An undivided healing.. THAT SWALLOWS US!”

Gtr 1,2- Distortion
D|-------------------------------------------------|
A|---6-----6-----6-----6-----5-----5-----5-----5---|
F|-----9-----9-----9-----9-----7-----7-----7-----7-|
C|-9-----9-----9-----9-----7-----7-----7-----7-----|
G|-------------------------------------------------|
C|-------------------------------------------------|
“NOTHING’S LIKE THIS EXIT! PALE WHITE SKIN ON MEMORY!”

D|-------------------------------------------|
A|---6-----6-----6-----6---10---10---12---13-|
F|-----9-----9-----9-----9----9----9----9----|
C|-9-----9-----9-----9-----------------------|
G|-------------------------------------------|
C|-------------------------------------------|
“NOTHING’S LIKE THIS EXIT! PALE WHITE SKIN ON MEMORY!”

D||-----------------------------------------------------||
A||o---------------------------------------------------o||
F||---------9/10/9~~------------------------9~~---------||
C||---------x-x--x--------------------------x-----------||
G||o-0-0-0--7/8/-7~~--0---0-0-0------0-0-0--7~~--0-0-0-o||
C||--0-0-0------------0---0-0-0------0-0-0-------0-0-0--||
     - - -            -   - - -      - - -       - - -
"TELEPHONE LINES AWAY!!
...Felt through a phone line!”

D|-----------------------------------------------|
A|-----6~~~~~~----------3~~~~~--------5~~--------|
F|-----5~~~~~~----------2~~~~~-5------4~~~~~-4-2-|
C|-3~~-3~~~~~~-2~~~~-0~-0~~~~~-3------2~~~~~-2-0-|
G|-3~~~~~~~~~~-2~~~~-0~~~~~~~~-3------2~~~~~-2-0-|
C|-3~~~~~~~~~~-2~~~~-0~~~~~~~~-3------2~~~~~-2-0-|

Gtr 2- Clean
D|------------------------------------------------------------|
A|------5~-----------5~-------------5~~------5~-----------5~~-|
F|---------5~~----------5~~------5~-------------5~~-----5~~---|
C|------------------------------------------------------------|
G|-0-3~~--------3-0~~-------0-3~~-------3-0~~-------0-3~~-----|
C|------------------------------------------------------------|





Comments


Popular 36 Crazy Fists tabs & chords
At The End Of August Bass Tabs
Eightminutesupsidedown Bass Tabs
Left Hand Charity Bass Tabs
Bloodwork Chords
At The End Of August Tabs
Bloodwork 2 Tabs
Kenai Tabs
Slit Wrist Theory 1 Tabs
Song For The Fisherman Tabs
The City Below Tabs


Song lyrics



↑ Back to top | Tablatures and chords are parodies/interpretations of the original songs. You may use it for private study, scholarship, research or language learning purposes only
© 2014 AZChords.com Contact us | Privacy policy | DMCA | Add/correct tabs | Request tabs | Top 50 tabs