» » »

Erasism Bass tabs (ver.1)

Artists:  A B C D E F G H I J K L M N O P Q R S T U V W X Y Z # 

Erasism Bass tabs (ver.1)

36 Crazy Fists
Rating:
0/5 (0 votes)

Hard to play? Try these video lessons and learn fast.
                Almost the whole of the song is slapped…

Intro (0:10)
F---------------------|----------------------------|
C---------------------|----------------------------|
G---------------------|----------------------------|
C-x-x-x-x--x-x-x-x-5~-|-x-x-x-x--x-x-x-x--5-3-5----|

With Guitars (0:22)
F--------------|
C--------------|
G--------------|
C-5-3-5-2-5-3--|

Chorus (0:25)
F-------------------------------------------------------------------|
C-------------------------------------------------------------------|
G-------------------------------------------------------------------|
C-xxxx--xxxx-5~-|-xxxx--xxxx--535--|-xxxx--xxxx-5~--|--5-3-5-2-5-3--|

Verse (1:06)
F-----------------------------------------------------------------|
C-----------------------------------------------------------------|
G-----------------------------------------------------------------|
C-5-5-5-5-8-5-5-3-5-5-5-8-8-7-7--|-5-5-5-5-8-5-5-3-5-5-5-7-7-8-8--|

Pre Chorus (1:19)
F----------------------|
C----------------------|
G----------------------|
C-5-5-5-5-7-3-3-2-(2)--|          (play the brackets on the 2nd and 4th times)

Chorus (1:32)
Verse (2:14)
PreChorus (2:27)

Bridge (2:40)
F----------------------------------|
C----------------------------------|
G----------------------------------|
C-5-5-5-5-7-7-7-7-5-5-5-5-8-8-8-8--|

Bridge 2 (2:53)  (hard to hear the 8 5 8 7 part)
F----------------------------------|
C----------------------------------|
G----------------------------------|
C-5-5-5-5-7-7-7-7-5-5-5-5-8-5-8-7--|

Bridge (3:06)
Bridge 2 (3:19)
(End on C-5)
            
Hard to play? Try these video lessons and learn fast. | Correct




comments powered by Disqus
↑ Back to top | Tablatures and chords are parodies/interpretations of the original songs. You may use it for private study, scholarship, research or language learning purposes only