>
 >
Elysium

Elysium Guitar Tabs

36 Crazy Fists - Elysium chords, tabs, tablatures, lyrics

Guitar lessons | Add/correct | Request | Top 50 tabs Artists:  A B C D E F G H I J K L M N O P Q R S T U V W X Y Z 0-9

Elysium Guitar Tabs – 36 Crazy Fists

CD, Sheet music, Poster

Do you like Elysium? Share with your friends now
Tabs
#interpretation of the song. You may only use this file #
#for private study, scholarship, or research.           # 

      [Rest Inside The Flames]


This is my interpretation of the song, it might have few errors 
on it, so let me know if you catch one here or there.

Notation legend:
~ = vibrato
. , pm = palm mute (the little dots under the lines)
ph = pinch harmonic
b = bend
/ = slide
t = tap
p = pull off

LISTEN TO THE RECORD as tabs weren't blessed with rhytm marks
-------------------------------------------------------------

Tuning (from low); C,G,C,F,A,D

{--------------------------O-O----------------------------------}
{--------------------------O-O----------------------------------}

Intro:
|-------------------------------------------------------|
|-------------------------------------------------------|
|-------14-----12-----10/-12-----10-----9-----10--------|
|-0-----------------------------------------------------|
|-0-----12-----10-----8-/-10-----8------7-----8---8ph---|
|-0-0-0----0-0----0-0--------0-0----0-0---0-0-----------|
    . .    . .    . .        . .    . .   . .

|-------------------------------------------------|
|-------------------------------------------------|
|-------------------------------------------------|
|-8-----------------------------------------------|
|-8-----12------10-----8-10-----7-----10-8--7ph---|
|-8-8-8-8--8-8--8--8-8-8-7--7-7-7-7-7-7--7--------|
    . .    . .     . .      . .   . .

|-------------------------------------------------------|
|-------------------------------------------------------|
|-------14-----12-----10/-12-----10-----9-----10--------|
|-0-----------------------------------------------------|
|-0-----12-----10-----8-/-10-----8------7-----8---8ph---|
|-0-0-0----0-0----0-0--------0-0----0-0---0-0-----------|
    . .    . .    . .        . .    . .   . .

|------------------------------------------------------|
|------------------------------------------------------|
|------------------------------------------------------|
|-8-----------------------------------8-----7-7~--0-0--|
|-8-----12------10-----8-10-----10----7-----7-----0-0--|
|-8-8-8-8--8-8--8--8-8-8-7--7-7-7-7-7-7-7-7-7-----0-0--|
    . .    . .     . .      . .   . .             . .

1st verse:
|--------------------------------------------|
|--------------------------------------------|
|--------------------------------------------|
|--0-0-0-0----0-0-0-0----0-0-0-0--0-0--0-0---|
|--0-0-0-0----0-0-0-0----0-0-0-0--0-0--0-0---|
|--0-0-0-0----0-0-0-0----0-0-0-0--0-0--0-0---|
   . . . .    . . . .    . . . .  . .  . .

|--------------------------------------------|
|--------------------------------------------|
|--------------------------------------------|
|-0-0-0-0----0-0-0-0----0-0-0-0----0-0-0-0---|
|-0-0-0-0----0-0-0-0----0-0-0-0----0-0-0-0---|
|-0-0-0-0----0-0-0-0----0-0-0-0----0-0-0-0---|
  . . . .    . . . .    . . . .    . . . .

|-----------------------------------------------------------------|
|-----------------------------------------------------------------|
|-----------------------------------------------------------------|
|-0-0-0-0----0-0-0-0----0-0-0-0--0-0--0-0----0-0-0-0----0-0-0-0---|
|-0-0-0-0----0-0-0-0----0-0-0-0--0-0--0-0----0-0-0-0----0-0-0-0---|
|-0-0-0-0----0-0-0-0----0-0-0-0--0-0--0-0----0-0-0-0----0-0-0-0---|
  . . . .    . . . .    . . . .  . .  . .    . . . .    . . . .

|------------------|
|------------------|
|------------------|
|-0-0-0-0----0-0---|
|-0-0-0-0----0-0---|
|-0-0-0-0----0-0---|
  . . . .    . .

Pre-Chorus: (play twice)
|-------------------------------------------------------------|
|-------------------------------------------------------------|
|---------------------------------------------15-12-----------|
|-0--0--0---0-------10--10-----10-10-7--7--7------------------|
|-0--0--0---0----10-----10---8----8--7--7--7--13-12----b10ph--|
|-0--0--0---0-10--------10-8------8--7--7--7------------------|

Chorus:
|-----------------------------------------------------------------|
|-----------------------------------------------------------------|
|--------------------------------10-10--9--9---12-12--------------|
|-10-10----7--------10---8-7----------------------------12-12-12--|
|-8--8-------8~-----8--------8~--8--8---7--7---10-10----10-10-10--|
|-8--8--8-------x-x-8--8---------0--0-0-0--0-0-0--0--0--10-10-10--|
        .              .

|---------------------------------------------------------------------|
|---------------------------------------------------------------------|
|------------------------------------10--9-----10--12-----------------|
|-10-10----7--------10---8-7------------------------------12--12--12--|
|-8--8-------8~-----8--------8~------8---7-----8---10-----10--10--10--|
|-8--8--8-------x-x-8--8---------0-0---0---0-0---0----0-0-10--10--10--|
        .              .         . .   .   . .   .    . .

2nd verse:
|------------------------------------------------------------------------|
|------------------------------------------------------------------------|
|-------------------------------------10-10-10-9-9-9-12-12-12------------|
|-10-10-10---10-10--10-10-10--10-10----------------------------12-12-12--|
|-8--8--8----8--8---8--8--8---8--8----8--8--8--7-7-7-10-10-10--10-10-10--|
|-8--8--8----8--8---7--7--7---7--7----0--0--0--0-0-0-0--0--0---10-10-10--|

|------------------------------------------------------|
|------------------------------------------------------|
|-------------------------------------10-10-10--9--9---|
|-10-10-10---10-10--10-10-10--10-10--------------------|
|-8--8--8----8--8---8--8--8---8--8----8--8--8---7--7---|
|-8--8--8----8--8---7--7--7---7--7----0--0--0---0--0---|

|-------------------------------------------------|
|-------------------------------------------------|
|-------------------------------------------------|
|----------------------------12-12-12--0-0--x/----|
|---12t13p12/10t12p10/8t10---10-10-10--0-0--x/----|
|-0--------------------------10-10-10--0-0--x/----|
  .                                    . .           

1st Verse

Pre-chorus

Chorus

2nd Verse (ends like this:)
|---------------------------------------------------------|
|---------------------------------------------------------|
|---------------------------------------------------------|
|---------------------------12-12-12--0------3--0--3--5---|
|---12t13p12/10t12p10/8t10--10-10-10--0------3--0--3--5---|
|-0-------------------------10-10-10--0------3--0--3--5---|


Bridge:
|-------------------------------------------------------------------|
|-------------------------------------------------------------------|
|-------------------------------------------------------------------|
|-3--0-0----0--5--3--0-0----0--5--3--0-0-----3--0-0----3--0--3--5---|
|-3--0-0----0--5--3--0-0----0--5--3--0-0-----3--0-0----3--0--3--5---|
|-3--0-0----0--5--3--0-0----0--5--3--0-0-----3--0-0----3--0--3--5---|

|-------------------------------------------------------------|
|-------------------------------------------------------------|
|-------------------------------------------------------------|
|---------------ph3-ph2---------------------2-----0-----------|
|-----------------------ph3-------------0-1---0-1---0-1-3/5---|
|-3-0-0-3-0-0----------------3-0-0-3-0------------------------|
                                        . .   . .   . .

|---------------------------------------------------------|
|---------------------------------------------------------|
|---------------------------------------------------------|
|--------------3ph-2ph-5ph---------------2-----3-----3/5--|
|------------------------------------0-1---0-1---0-1------|
|-3-0-0-3-0-0--------------3-0-0-3-0----------------------|
                                     . . . . . . . .

|---------------------------------------------------------|
|---------------------------------------------------------|
|------------------------10-10--9--9---12-12--------------|
|-10-10-------10--------------------------------12-12-12--|
|-8--8--------8----------8--8---7--7---10-10----10-10-10--|
|-8--8--------8----------0--0-0-0--0-0-0--0--0--10-10-10--|

|----------------------------------------------------------------------|
|----------------------------------------------------------------------|
|------------------------------------10--9-----10--12------------------|
|-10-10----7--------10---8-7------------------------------12--12--12---|
|-8--8-------8~-----8--------8~------8---7-----8---10-----10--10--10---|
|-8--8--8-------x-x-8--8---------0-0---0---0-0---0----0-0-10--10--10---|
        .              .         . .   .   . .   .    . .

|--------------------------------------------------------------------------|
|--------------------------------------------------------------------------|
|-------------------------------------10-10-10-9-9-9-12-12-12--------------|
|-10-10-10---10-10--10-10-10--10-10-----------------------------12-12-12---|
|-8--8--8----8--8---8--8--8---8--8----8--8--8--7-7-7-10-10-10---10-10-10---|
|-8--8--8----8--8---7--7--7---7--7----0--0--0--0-0-0-0--0--0----10-10-10---|

|--------------------------------------------|
|--------------------------------------------|
|-------------------------------------10-10--|
|-10-10-10---10-10--10-10-10--10-10----------|
|-8--8--8----8--8---8--8--8---8--8----8--8---|
|-8--8--8----8--8---7--7--7---7--7----0--0---|

|----------------------------------------------------|
|----------------------------------------------------|
|----------------------------------------------------|
|---10t12p10/8t10p8/7t8p7t8p7/5t7p5/3t5---12-12-12---|
|-----------------------------------------10-10-10---|
|-0---------------------------------------10-10-10---|
  .

|-------------------------------------------------------|
|-------------------------------------------------------|
|-------------------------------------------------------|
|--------------------------------------------12-12-12---|
|---12t13p12/10t12p10/8t10-8t10p8p7t8p7/5t7--10-10-10---|
|-0------------------------------------------10-10-10---|
  .

|--------------------------------------------|
|--------------------------------------------|
|--------------------------------------------|
|--0-0-0-0----0-0-0-0----0-0-0-0--0-0--0-0---|
|--0-0-0-0----0-0-0-0----0-0-0-0--0-0--0-0---|
|--0-0-0-0----0-0-0-0----0-0-0-0--0-0--0-0---|
   . . . .    . . . .    . . . .  . .  . .

|---------------------------------|
|---------------------------------|
|---------------------------------|
|-0-0-0-0----0-0-0-0----0-0-0-0---|
|-0-0-0-0----0-0-0-0----0-0-0-0---|
|-0-0-0-0----0-0-0-0----0-0-0-0---|
  . . . .    . . . .    . . . .

|-----------------------------------------------------------------|
|-----------------------------------------------------------------|
|-----------------------------------------------------------------|
|-0-0-0-0----0-0-0-0----0-0-0-0--0-0--0-0----0-0-0-0----0-0-0-0---|
|-0-0-0-0----0-0-0-0----0-0-0-0--0-0--0-0----0-0-0-0----0-0-0-0---|
|-0-0-0-0----0-0-0-0----0-0-0-0--0-0--0-0----0-0-0-0----0-0-0-0---|
  . . . .    . . . .    . . . .  . .  . .    . . . .    . . . .

|----------------------|
|----------------------|
|----------------------|
|-0-0-0-0----0-0-0-0---|
|-0-0-0-0----0-0-0-0---|
|-0-0-0-0----0-0-0-0---|
  . . . .

[the end]





Comments


Popular 36 Crazy Fists tabs & chords
At The End Of August Bass Tabs
Bury Me Where I Fall 1 Bass Tabs
Kenai Bass Tabs
Turns To Ashes 1 Bass Tabs
At The End Of August Tabs
Chalk White Tabs
Cure Eclipse Tabs
Eightminutesupsidedown 1 Tabs
Midnight Swim Tabs
The City Below Tabs


Song lyrics



↑ Back to top | Tablatures and chords are parodies/interpretations of the original songs. You may use it for private study, scholarship, research or language learning purposes only
© 2014 AZChords.com Contact us | Privacy policy | DMCA | Add/correct tabs | Request tabs | Top 50 tabs