>
 >
Dislocate

Dislocate Guitar Tabs

36 Crazy Fists - Dislocate chords, tabs, tablatures, lyrics

Guitar lessons | Add/correct | Request | Top 50 tabs Artists:  A B C D E F G H I J K L M N O P Q R S T U V W X Y Z 0-9

Dislocate Guitar Tabs – 36 Crazy Fists

CD, Sheet music, Poster

Do you like Dislocate? Share with your friends now
Bass TabsTabs
36 Crazyfists
Bitterness The Star
Drop C-  CGCFAD

-Intro-
Gtr 1- played with effects and echo
D||--------------------------------------------------------------||
A||o------------------------------------------------------------o||
F||--7-7-7--8-8-8-8-8--7-(7)-(7)----7-7-7--8-8-8-8-8--7-(7)-(7)--||
C||--------------------------------------------------------------||
G||o-5-5-5--6-6-6-6-6--5-(5)-(5)----5-5-5--6-6-6-6-6--5-(5)-(5)-o||
C||--------------------------------------------------------------||
Gtr 2- played with phaser 
D||--------------------------------------------------------------||
A||o------------------------------------------------------------o||
F||--7-7-7--8-8-8-8-8--7------------7-7-7--8-8-8-8-8--5----------||
C||--------------------------------------------------------------||
G||o-5-5-5--6-6-6-6-6--5------------5-5-5--6-6-6-6-6--3---------o||
C||--------------------------------------------------------------||

Gtr 1,2
D||-----------------------------------||------|
A||o---------------------------------o||------|
F||-----------------------------------||------|
C||--0-0-0-1-1-4-4----3-3-3-4-4-1-1~--||--0~--|
G||o-0-0-0-1-1-4-4----3-3-3-4-4-1-1~-o||--0~--|
C||--0-0-0-1-1-4-4----3-3-3-4-4-1-1~--||--0~--|

-Verse-
Gtr 1- played with effects and echo
D||--------------------------------------------------------------||
A||o------------------------------------------------------------o||
F||--7-7-7--8-8-8-8-8--7-(7)-(7)----7-7-7--8-8-8-8-8--7-(7)-(7)--||
C||--------------------------------------------------------------||
G||o-5-5-5--6-6-6-6-6--5-(5)-(5)----5-5-5--6-6-6-6-6--5-(5)-(5)-o||
C||--------------------------------------------------------------||
“I taste words you divide, want to cover up”

Gtr 1,2
D||-----------------------------------||-------|
A||o---------------------------------o||-------|
F||-----------------------------------||-------|
C||--0-0-0-0-1-1-4-4-3-3-3-3-4-4-1-1--||--1-1--|
G||o-0-0-0-0-1-1-4-4-3-3-3-3-4-4-1-1-o||--1-1--|
C||--0-0-0-0-1-1-4-4-3-3-3-3-4-4-1-1--||--1-1--|
     pm- - - - - - - - - - - - - - -
“And I see how you pressed your skin on limb”

-Chorus-
D||----------------------------------||
A||o--------------------------------o||
F||----------------------------------||
C||--0-0-0-1-1-4-4---3-3-3-4-4-1-1~--||
G||o-0-0-0-1-1-4-4---3-3-3-4-4-1-1~-o||
C||--0-0-0-1-1-4-4---3-3-3-4-4-1-1~--||
“MARK MY WORDS!!”

-Bridge-
Gtr 1,2
D||-----------------------------------------------------------------||
A||o---------------------------------------------------------------o||
F||-----------------------------------------------------------------||
C||--12-12-12-12-12-33333-777777-8888888-1010101010-11-11-11-11-11--||
G||o-12-12-12-12-12-33333-777777-8888888--8-8-8-8-8-11-11-11-11-11-o||
C||--12-12-12-12-12-33333-777777-8888888------------11-11-11-11-11--||
“DISLOCATE YOURSELF!!!”

Gtr 1
D||---------------------------------------||
A||o-------------------------------------o||
F||---------------------------------------||
C||--77777777-88888888-77777777-33333333--||
G||o-77777777-88888888-77777777-33333333-o||
C||--77777777-88888888-77777777-33333333--||
Gtr 2
D||-----------------------------------------------------------||
A||o---------------------------------------------------------o||
F||--1414141414141414/12121212/141414/101010101010/9999/1010--||
C||-----------------------------------------------------------||
G||o-1212121212121212/10101010/121212/-8-8-8-8-8-8/7777/-8-8-o||
C||-----------------------------------------------------------||
“This is enough poison for meeeeee.....”

Gtr 1- played with effects and echo
D||--------------------------------------------------------------||
A||o------------------------------------------------------------o||
F||--7-7-7--8-8-8-8-8--7-(7)-(7)----7-7-7--8-8-8-8-8--7-(7)-(7)--||
C||--------------------------------------------------------------||
G||o-5-5-5--6-6-6-6-6--5-(5)-(5)----5-5-5--6-6-6-6-6--5-(5)-(5)-o||
C||--------------------------------------------------------------||
Gtr 2- played with phaser 
D||--------------------------------------------------------------||
A||o------------------------------------------------------------o||
F||--7-7-7--8-8-8-8-8--7------------7-7-7--8-8-8-8-8--5----------||
C||--------------------------------------------------------------||
G||o-5-5-5--6-6-6-6-6--5------------5-5-5--6-6-6-6-6--3---------o||
C||--------------------------------------------------------------||
“Spilling your guilt...”

Gtr 1,2
D||----------------------------------||
A||o--------------------------------o||
F||----------------------------------||
C||--0-0-0-1-1-4-4---3-3-3-4-4-1-1~--||
G||o-0-0-0-1-1-4-4---3-3-3-4-4-1-1~-o||
C||--0-0-0-1-1-4-4---3-3-3-4-4-1-1~--||
“MARK MY WORDS!!”

D||-----------------------------------------------------------------||
A||o---------------------------------------------------------------o||
F||-----------------------------------------------------------------||
C||--12-12-12-12-12-33333-777777-8888888-1010101010-11-11-11-11-11--||
G||o-12-12-12-12-12-33333-777777-8888888--8-8-8-8-8-11-11-11-11-11-o||
C||--12-12-12-12-12-33333-777777-8888888------------11-11-11-11-11--||
“DISLOCATE YOURSELF!!!”

Gtr 1
D||---------------------------------------||
A||o-------------------------------------o||
F||---------------------------------------||
C||--77777777-88888888-77777777-33333333--||
G||o-77777777-88888888-77777777-33333333-o||
C||--77777777-88888888-77777777-33333333--||
Gtr 2
D||-----------------------------------------------------------||
A||o---------------------------------------------------------o||
F||--1414141414141414/12121212/141414/101010101010/9999/1010--||
C||-----------------------------------------------------------||
G||o-1212121212121212/10101010/121212/-8-8-8-8-8-8/7777/-8-8-o||
C||-----------------------------------------------------------||
“This is enough poison for meeeeee.....”

Gtr 1,2
D|-----------|
A|-----------|
F|-----------|
C|--0-1-3-4--|
G|--0-1-3-4--|
C|--0-1-3-4--|
    pm- - -

Gtr 1
D||---------------------------------------||-------|
A||o-------------------------------------o||-------|
F||---------------------------------------||-------|
C||--77777777-88888888-77777777-33333333--||--3~~--|
G||o-77777777-88888888-77777777-33333333-o||--3~~--|
C||--77777777-88888888-77777777-33333333--||--3~~--|
Gtr 2
D||-----------------------------------------------------------||--------|
A||o---------------------------------------------------------o||--------|
F||--1414141414141414/12121212/141414/101010101010/9999/1010--||--10~~--|
C||-----------------------------------------------------------||--------|
G||o-1212121212121212/10101010/121212/-8-8-8-8-8-8/7777/-8-8-o||---8~~--|
C||-----------------------------------------------------------||--------|
“This is enough poison for meeeeee.....”





Comments


Popular 36 Crazy Fists tabs & chords
All I Am Bass Tabs
Bury Me Where I Fall 1 Bass Tabs
The Heart And The Shape Bass Tabs
All I Am Tabs
An Agreement Called Forever Tabs
Aurora Tabs
Destroy The Map Intro Tabs
Elysium Tabs
Left Hand Charity 2 Tabs
The City Below Tabs


Song lyrics



↑ Back to top | Tablatures and chords are parodies/interpretations of the original songs. You may use it for private study, scholarship, research or language learning purposes only
© 2014 AZChords.com Contact us | Privacy policy | DMCA | Add/correct tabs | Request tabs | Top 50 tabs