» » »

36 Crazy Fists, Destroy The Map Tabs (ver.2)

Artists:  A B C D E F G H I J K L M N O P Q R S T U V W X Y Z # 

Destroy The Map Tabs (ver.2)

36 Crazy Fists Tabs
 Rating:
4/5 (4 votes)
Destroy The Map  lessons Tabs too difficult? Try these video lessons and learn fast
                (Correct)
(Intro)
##################################

Tuning: C G C F A D (not standard because you will need a C on powerchord on chorus)
 
I looked on the net for this tab and first thing i tried was the intro (d'oohhh):).
It is clear that it's a 3 string strumming esspecialy on the part 2 of intro where
you let the chords ring. Just try it. I think this is correct.


 Intro
|-99999-99999--999--1212121212-1414141414-121212-|
|-77777-77777--777--1010101010-1212121212-101010-|
|-66666-66666--666--1111111111-1414141414-111111-|
|------------------------------------------------|
|------------------------------------------------|
|------------------------------------------------|

|-9~--12~--14~--12~-|
|-7~--10~--12~--10~-|
|-6---11---14---11--|
|-------------------|
|-------------------|
|-------------------|

If you want just to "test" it on your standard tuned guitar (EADGBE) do it like this

|-7---10--12---10---|
|-5---8---10---8----|
|-4---9---12---9----|
|-------------------|
|-------------------|
|-------------------|

Rest of the song seemed correct in the other version. Hope you don;t mind me adding this correction. Bye
            
Submit corrections

comments powered by Disqus
↑ Back to top | 36 Crazy Fists Tabs for Destroy The Map. Lyrics for acoustic guitar and electric guitar. Tablatures and chords are parodies/interpretations of the original songs. You may use it for private study, scholarship, research or language learning purposes only