>
 >
Cure Eclipse

Cure Eclipse Guitar Tabs

36 Crazy Fists - Cure Eclipse chords, tabs, tablatures, lyrics

Guitar lessons | Add/correct | Request | Top 50 tabs Artists:  A B C D E F G H I J K L M N O P Q R S T U V W X Y Z 0-9

Cure Eclipse Guitar Tabs – 36 Crazy Fists

CD, Sheet music, Poster

Do you like Cure Eclipse? Share with your friends now
Tabs
36 Crazyfists
A Snow Capped Romance
Drop C- CGCFAD

-Intro-
Gtr 1,2- Distortion
D||-----------------------------------------------------------------------||
A||o---------------------------------------------------------------------o||
F||-----------------------------------------------------------------------||
C||--1-----1-----1-----1-----1---------0-----0-----0-----0-----0----------||
G||o-1-0-0-1-0-0-1-0-0-1-0-0-1-111-1p0-0-0-0-0-0-0-0-0-0-0-0-0-0-000-000-o||
C||--1-0-0-1-0-0-1-0-0-1-0-0-1-111-1p0-0-0-0-0-0-0-0-0-0-0-0-0-0-000-000--||x4
       pm-   - -   - -   - -   ---       - -   - -   - -   - -   --- ---
-“THE NIGHT BREATHS DIFFERENT! AND THE COLD WAS NAMED ANEW!
-SHE SITS IN THE WORDLESS SPACE! THE GRIN GAVE US AWAY!
-AND THAT WAS THE END! THAT WAS EVERYTHING DYING!
-AND THAT WAS THE END! THAT WAS EVERYTHING!”

D|-----------------------------------------------------|
A|-----------------------------------------------------|
F|----------8/7---------8/10-----------8/7---------5/7-|
C|-0h1h3p0--x-x--0-6p5--x-x---0h1h3p0--x-x--0-6p5--x-x-|
G|-0h1h3p0--6/5--0-6p5--6/8---0h1h3p0--6/5--0-6p5--3/5-|
C|-0h1h3p0-------0-6p5--------0h1h3p0-------0-6p5------|

D|-------------------------------------------------------|
A|-------------------------------------------------------|
F|----------8/7---------8/10-----------8/7---------5-----|
C|-0h1h3p0--x-x--0-6p5--x-x---0h1h3p0--x-x--0-6p5--x-----|
G|-0h1h3p0--6/5--0-6p5--6/8---0h1h3p0--6/5--0-6p5--3-5*~-|
C|-0h1h3p0-------0-6p5--------0h1h3p0-------0-6p5--------|


-Verse-
Gtr 1- clean
D||----------------------------------------------------------------------||
A||o--------------------------------------------------------------------o||
F||----------------------------------------------------------------------||
C||------0-------0-------0-------0----------1-------1-------1-------1----||
G||o---0---0---0---0---0---0---0---0------1---1---1---1---1---1---1---1-o||
C||--0-------0-------0-------0-------0--1-------1-------1-------1--------||x4
-“Cut into the face and think straight. I was doing everything,
-To keep me from choking. With the weather heavy,
-Heavy at the fireside, You'll say it so well,”

Gtr 2- light distortion (comes in 3rd time)
Vol. Swells
D|-----------------------------------------------------------------------|
A|-----------------------------------------------------------------------|
F|-7<<~~~~~~~~~~~-8<<~~~~~~~~~-15<<~~~~~~~~~~-13<<~~~~~~~~~~-12<<~~~~~~~-|
C|-----------------------------------------------------------------------|
G|-----------------------------------------------------------------------|
C|-----------------------------------------------------------------------|

Gtr 1,2- Distortion
D|-----------|
A|-----------|
F|-----------|
C|--5--6--5--|
G|--5--6--5--|
C|--5--6--5--|
“So well”


-Chorus-
Gtr 1
D||-----------------------------------------------------------||
A||o---------------------------------------------------------o||
F||--3-3-3-3-3-3-3-3-3-3-3-3-3-3-7-7-7-7-7-7-7-7-7-7-7-7-7-7--||
C||--1-1-1-1-1-1-1-1-1-1-1-1-1-1-5-5-5-5-5-5-5-5-5-5-5-5-5-5--||
G||o-1-1-1-1-1-1-1-1-1-1-1-1-1-1-5-5-5-5-5-5-5-5-5-5-5-5-5-5-o||
C||--1-1-1-1-1-1-1-1-1-1-1-1-1-1-5-5-5-5-5-5-5-5-5-5-5-5-5-5--||x4
Gtr 2
D||----------------------------------------------------------||
A||o--------------------------------------------------------o||
F||--8--8--8--8--8--8--8--8--12--12--12--12--12--12--12--12--||
C||--x--x--x--x--x--x--x--x--x---x---x---x---x---x---x---x---||
G||o-6--6--6--6--6--6--6--6--10--10--10--10--10--10--10--10-o||
C||----------------------------------------------------------||x4
“Dreary can come out and move yourself away.
I know you owe me, I know you owe me,
This year, THIS YEAR CURE ME!!!”

Gtr 1
D|------------------|
A|------------------|
F|------------------|
C|-3--5--6--8--6--5-|
G|-3--5--6--8--6--5-|
C|-3--5--6--8--6--5-|
Gtr 2
D|-------------------|
A|-------------------|
F|-10-12-13-15-13-12-|
C|-------------------|
G|-------------------|
C|-------------------|


D|-----------------------------------------------------|
A|-----------------------------------------------------|
F|----------8/7---------8/10-----------8/7---------5/7-|
C|-0h1h3p0--x-x--0-6p5--x-x---0h1h3p0--x-x--0-6p5--x-x-|
G|-0h1h3p0--6/5--0-6p5--6/8---0h1h3p0--6/5--0-6p5--3/5-|
C|-0h1h3p0-------0-6p5--------0h1h3p0-------0-6p5------|

D|-------------------------------------------------------|
A|-------------------------------------------------------|
F|----------8/7---------8/10-----------8/7---------5-----|
C|-0h1h3p0--x-x--0-6p5--x-x---0h1h3p0--x-x--0-6p5--x-----|
G|-0h1h3p0--6/5--0-6p5--6/8---0h1h3p0--6/5--0-6p5--3-5*~-|
C|-0h1h3p0-------0-6p5--------0h1h3p0-------0-6p5--------|


-Verse-
Gtr 1- clean
D||----------------------------------------------------------------------||
A||o--------------------------------------------------------------------o||
F||----------------------------------------------------------------------||
C||------0-------0-------0-------0----------1-------1-------1-------1----||
G||o---0---0---0---0---0---0---0---0------1---1---1---1---1---1---1---1-o||
C||--0-------0-------0-------0-------0--1-------1-------1-------1--------||x4
-“And I was barely here. But I'd been there for years.
-Thought I'd leave it there. So it couldn't follow me here.
-And I've been thinking of you. As the days grew color.
-With the seconds turning hours, MY END TURNED ALIVE!!!”

Gtr 2- light distortion (comes in 3rd time)
Vol. Swells
D|-----------------------------------------------------------------------|
A|-----------------------------------------------------------------------|
F|-7<<~~~~~~~~~~~-8<<~~~~~~~~~-15<<~~~~~~~~~~-13<<~~~~~~~~~~-12<<~~~~~~~-|
C|-----------------------------------------------------------------------|
G|-----------------------------------------------------------------------|
C|-----------------------------------------------------------------------|

Gtr 1,2- Distortion
D|---------|
A|---------|
F|---------|
C|-5--6--5-|
G|-5--6--5-|
C|-5--6--5-|


-Chorus-
Gtr 1
D||-----------------------------------------------------------||
A||o---------------------------------------------------------o||
F||--3-3-3-3-3-3-3-3-3-3-3-3-3-3-7-7-7-7-7-7-7-7-7-7-7-7-7-7--||
C||--1-1-1-1-1-1-1-1-1-1-1-1-1-1-5-5-5-5-5-5-5-5-5-5-5-5-5-5--||
G||o-1-1-1-1-1-1-1-1-1-1-1-1-1-1-5-5-5-5-5-5-5-5-5-5-5-5-5-5-o||
C||--1-1-1-1-1-1-1-1-1-1-1-1-1-1-5-5-5-5-5-5-5-5-5-5-5-5-5-5--||x4
Gtr 2
D||----------------------------------------------------------||
A||o--------------------------------------------------------o||
F||--8--8--8--8--8--8--8--8--12--12--12--12--12--12--12--12--||
C||--x--x--x--x--x--x--x--x--x---x---x---x---x---x---x---x---||
G||o-6--6--6--6--6--6--6--6--10--10--10--10--10--10--10--10-o||
C||----------------------------------------------------------||x4
“Dreary can come out and move yourself away.
I know you owe me, I know you owe me,
This year, THIS YEAR!!!”

Gtr 1
D|------------------|
A|------------------|
F|------------------|
C|-3--5--6--8--6--5-|
G|-3--5--6--8--6--5-|
C|-3--5--6--8--6--5-|
Gtr 2
D|-------------------|
A|-------------------|
F|-10-12-13-15-13-12-|
C|-------------------|
G|-------------------|
C|-------------------|


-Breakdown-
D||----------------------------------------------------------||
A||o--------------------------------------------------------o||
F||----------------------------------------------------------||
C||--1-0-0--1-0-0--1-0-0--8-8-8--1-0-0--1-0-0--1-0-0--5-6-5--||
G||o-1-0-0--1-0-0--1-0-0--6-6-6--1-0-0--1-0-0--1-0-0--5-6-5-o||
C||--1-0-0--1-0-0--1-0-0--6-6-6--1-0-0--1-0-0--1-0-0--5-6-5--||
“THE NIGHT BREATHS DIFFERENT!
AND THE COLD WAS NAMED ANEW!
I FOUND SO MUCH MORE THIS WAY!”

D||------------------------------------||
A||o----------------------------------o||
F||------------------------------------||
C||--1-0------1-0------1-0------5-6-5--||
G||o-1-0------1-0------1-0------5-6-5-o||
C||--1-0------1-0------1-0------5-6-5--||
“I FOUND SO MUCH MORE THIS WAY!”

D||-----------------------------------------||
A||o---------------------------------------o||
F||-----------------------------------------||
C||----------------------------------5-6-5--||
G||o---------------------------------5-6-5-o||
C||--1-0-0-----13b-12-0-----1-0-0----5-6-5--||

Gtr 1
D|--------------------|
A|--------------------|
F|-/10-12-13-12h13p12-|
C|--------------------|
G|--------------------|
C|--------------------|

-Chorus-
Gtr 1
D||-----------------------------------------------------------||
A||o---------------------------------------------------------o||
F||--3-3-3-3-3-3-3-3-3-3-3-3-3-3-7-7-7-7-7-7-7-7-7-7-7-7-7-7--||
C||--1-1-1-1-1-1-1-1-1-1-1-1-1-1-5-5-5-5-5-5-5-5-5-5-5-5-5-5--||
G||o-1-1-1-1-1-1-1-1-1-1-1-1-1-1-5-5-5-5-5-5-5-5-5-5-5-5-5-5-o||
C||--1-1-1-1-1-1-1-1-1-1-1-1-1-1-5-5-5-5-5-5-5-5-5-5-5-5-5-5--||x4
Gtr 2
D||----------------------------------------------------------||
A||o--------------------------------------------------------o||
F||--8--8--8--8--8--8--8--8--12--12--12--12--12--12--12--12--||
C||--x--x--x--x--x--x--x--x--x---x---x---x---x---x---x---x---||
G||o-6--6--6--6--6--6--6--6--10--10--10--10--10--10--10--10-o||
C||----------------------------------------------------------||x4
“Dreary can come out and move yourself away.
I know you owe me, I know you owe me,
This year, THIS YEAR!!!”

Gtr 1
D|-------------------|
A|-------------------|
F|-------------------|
C|-3--5--6--8--6--5--|
G|-3--5--6--8--6--5--|
C|-3--5--6--8--6--5--|
Gtr 2
D|-------------------|
A|-------------------|
F|-10-12-13-15-13-12-|
C|-------------------|
G|-------------------|
C|-------------------|
“This year cure me...”

-Outro-
Gtr 1
D|-----------------------------------------------------|
A|-----------------------------------------------------|
F|----------8/7---------8/10-----------8/7---------5/7-|
C|-0h1h3p0--x-x--0-6p5--x-x---0h1h3p0--x-x--0-6p5--x-x-|
G|-0h1h3p0--6/5--0-6p5--6/8---0h1h3p0--6/5--0-6p5--3/5-|
C|-0h1h3p0-------0-6p5--------0h1h3p0-------0-6p5------|

D|-------------------------------------------------------------------|
A|-------------------------------------------------------------------|
F|----------8/7---------8/10-----------8/7---------5-7-8~~~~~~~~~~~~-|
C|-0h1h3p0--x-x--0-6p5--x-x---0h1h3p0--x-x--0-6p5--x-x-x-------------|
G|-0h1h3p0--6/5--0-6p5--6/8---0h1h3p0--6/5--0-6p5--3-5-6~~~~~~~~~~~~-|
C|-0h1h3p0-------0-6p5--------0h1h3p0-------0-6p5--------------------|

Gtr 1,2
D|---------------------------------------------------------------------|
A|-15~~~~~~~~~~~~~~~~~~~~~~~~~~~~~~~~~~~~~~~~~~~~~~~~~~~~~~~~~~~~~~~~~-|
F|---------------------------------------------------------------------|
C|---------------------------------------------------------------------|
G|---------------------------------------------------------------------|
C|---------------------------------------------------------------------|





Comments


Popular 36 Crazy Fists tabs & chords
Two Months From A Year Bass Tabs
Absent Are The Saints Tabs
An Agreement Called Forever 1 Tabs
Ceramic 1 Tabs
Destroy The Map Intro Tabs
I'll Go Until My Heart Stops Tabs
Only A Year Or So Intro Tabs
Slit Wrist Theory 2 Tabs
The All Night Lights Tabs
Two Months From A Year Tabs


Song lyrics



↑ Back to top | Tablatures and chords are parodies/interpretations of the original songs. You may use it for private study, scholarship, research or language learning purposes only
© 2014 AZChords.com Contact us | Privacy policy | DMCA | Add/correct tabs | Request tabs | Top 50 tabs