» » »

36 Crazy Fists, Chalk White Tabs (ver.1)

Artists:  A B C D E F G H I J K L M N O P Q R S T U V W X Y Z # 

Chalk White Tabs (ver.1)

36 Crazy Fists Tabs
 Rating:
4/5 (4 votes)
Chalk White lessons Tabs too difficult? Try these video lessons and learn fast
1
                Chalk white
36 Crazyfists

Standard tuning

riff 1:
---0-----------------------------------
---0-5----3-----------5----3-----------
---0---4----4---5-4-----4----4-----5---
---2----------5-----------------5------
---2-----------------------------------
---0-----------------------------------

riff 2:
---------------------------------------------------------
---------------------------------------------------------
-----------------11-11-11-11-----------------4-4-4/5/4---
---5-5-5-5-5-5-----------------3-3-3-3-3-3---------------
---5-5-5-5-5-5---9--9--9--9----3-3-3-3-3-3---2-2-2/3/2---
---5-5-5-5-5-5-----------------3-3-3-3-3-3---------------

------------------------------------------------------------
------------------------------------------------------------
-----------------------------7/11-11-11-11-11-16-16-16-16---
---5-5-5-5-5-5-5-5-5-5-5-5----------------------------------
---5-5-5-5-5-5-5-5-5-5-5-5---5/9--9--9--9--9--14-14-14-14---
---5-5-5-5-5-5-5-5-5-5-5-5----------------------------------

riff 3:
----------------------------------------------
----------------------------------------------
----------------------------------------------
---2-2-2-2-3--2-x-x-3--2-2-2-2-3--2-x-x-x-3---
---2-2-2-2-3--2-x-x-3--2-2-2-2-3--2-x-x-x-3---
---0-0-0-0-3--0-x-x-3--0-0-0-0-3--0-x-x-x-3---

riff 4:
--------------------------
--------------------------
---11-11-11-11-11-4/5/4---
--------------------------
---9--9--9--9--9--2/3/2---
--------------------------

riff 5:
------------------------------|--------------------
------------------------------|--------------------
---9-9-9-9---11-11-11-11-11---|---16-16-16-16-16---
-----------9------------------|--------------------
---7-7-7-7---9--9--9--9--9----|---14-14-14-14-14---
-----------7------------------|--------------------

riff 6:
---------------------------
---------------------------
-------------------4/5/4---
---3-3-3--3-3-3-3----------
---3-3-3--3-3-3-3--2/3/2---
---3-3-3--3-3-3-3----------

riff 7:
-------------------------------------------------
-------------------------------------------------
---9-9-9-9-11-11-11-11-12-12-12-12-16-16-16-16---
-------------------------------------------------
---7-7-7-7-9--9--9--9--10-10-10-10-14-14-14-14---
-------------------------------------------------

riff 8:
-------------------------------------
-------------------------------------
-------------------------------------
---0-8-0---1-1-0-0-1-1-0-0-1-1-0-0---
---0-8-0---1-1-0-0-1-1-0-0-1-1-0-0---
---0-8-0---1-1-0-0-1-1-0-0-1-1-0-0---
            
Submit corrections

comments powered by Disqus
↑ Back to top | 36 Crazy Fists Tabs for Chalk White. Lyrics for acoustic guitar and electric guitar. 1 Tablatures and chords are parodies/interpretations of the original songs. You may use it for private study, scholarship, research or language learning purposes only