» » »

36 Crazy Fists, Ceramic Tabs (ver.1)

Artists:  A B C D E F G H I J K L M N O P Q R S T U V W X Y Z # 

Ceramic Tabs (ver.1)

36 Crazy Fists Tabs
 Rating:
4/5 (4 votes)
Ceramic lessons Tabs too difficult? Try these video lessons and learn fast
                tune to c 

e--------------------------------------------- play this for the chorus
b--------------------------------------------- 
d---------------------------------------------
g---------------------------------------------
a-------540-------540--------540--------540---
e-5h777-----5h777------3h555------0h333-------

you will have to work out the rythm for the verse     
-----------------------------------------------
-----------------------------------------------
-----------------------------------------------
------7b7----------7b7-----7-780---------------
--9---5b5--9---7---5b5--5--5-------------------
--7--------7---5--------3----------------------
            
Submit corrections

comments powered by Disqus
↑ Back to top | 36 Crazy Fists Tabs for Ceramic. Lyrics for acoustic guitar and electric guitar. Tablatures and chords are parodies/interpretations of the original songs. You may use it for private study, scholarship, research or language learning purposes only