» » »

31knots, The Days And Nights Of Lust And Presumption Tabs (ver.1)

Artists:  A B C D E F G H I J K L M N O P Q R S T U V W X Y Z # 

The Days And Nights Of Lust And Presumption Tabs (ver.1)

31knots Tabs
 Rating:
4/5 (4 votes)
The Days And Nights Of Lust And Presumption lessons Tabs too difficult? Try these video lessons and learn fast
1
                31 Knots
The Days and Nights of Everything Anywhere


« We played it clean »
E|---00---------00------00-----------------|
B|---11---------11------00-----------------|
G|---22---------22------11-----------------|
D|---22---------22------22-----------------|
A|---00---------00------22-----------------|
E|----------------------00-----------------|

« No hem unkempt »
E|---00---------00------00-----------------|
B|---11---------11------00-----------------|
G|---22---------22------11-----------------|
D|---22---------22------22-----------------|
A|---00---------00------22-----------------|
E|----------------------00-----------------|

« They hemmorage wit »
E|---00------33---------00-----00----------|
B|---11------00---------11-----22----------|
G|---00------00---------00-----00----------|
D|---22------00---------22-----22----------|
A|---33------22---------33-----00----------|
E|-----------33----------------------------|

“There is no other place to go”
E|---11---------11---------11---------00---|
B|---11---------11---------11---------11---|
G|---22---------22---------22---------22---|
D|---33---------33---------33---------22---|
A|---33---------33---------33---------00---|
E|---11---------11---------11--------------|

Repeat

then
E|---00------------------------------------|
B|---11------------------------------------|
G|---22------------------------------------|
D|---22------------------------------------|
A|---00------------------------------------|
E|-----------------------------------------|
            
Submit corrections

comments powered by Disqus
↑ Back to top | 31knots Tabs for The Days And Nights Of Lust And Presumption. Lyrics for acoustic guitar and electric guitar. 1 Tablatures and chords are parodies/interpretations of the original songs. You may use it for private study, scholarship, research or language learning purposes only