» » »

31knots, Hearsay Tabs (ver.2)

Artists:  A B C D E F G H I J K L M N O P Q R S T U V W X Y Z # 

Hearsay Tabs (ver.2)

31knots Tabs
 Rating:
4/5 (4 votes)
Hearsay lessons Tabs too difficult? Try these video lessons and learn fast
                Hearsay
31 Knots
Talk Like Blood

E|--------------------------|
B|---8----------------------|
G|---7----------------------|
D|---8----------------------|
A|--------------------------|
E|--------------------------|

Verse :
E|---------------5-5-55-----|
B|---8-8-8-8\xx--5-5-58-----|
G|---7-7-7-7\xx--8-8-87-----|
D|---8-8-8-8\xx--7-7-77-----|
A|--------------------------|
E|--------------------------|


E|--------------------------|
B|---7--7--7--7--7--7--7\---|
G|---7--7--7--7--7—-7—-7\---|
D|---8--8--8--8--8-—8-—8\---|
A|---0--0--0--0--0--0--0----|
E|--------------------------|

Chorus :
E|---------------------------------------------------|
B|---------------------------------------------------|
G|-----0-----0-----0-----0-----0-----0-----0-----0---|
D|---888---888---888---888---888---888---888---888---|
A|-----5-----5-----7-----7-----8-----8-----7-----7---|
E|---------------------------------------------------|

Outro :
E|-------------------555555555555555---|
B|---8888888888888888555555555555555---|
G|---7777777777777777888888888888888---|
D|---8888888888888888777777777777777---|
A|-------------------------------------|
E|-------------------------------------|
            
Submit corrections

comments powered by Disqus
↑ Back to top | 31knots Tabs for Hearsay. Lyrics for acoustic guitar and electric guitar. Tablatures and chords are parodies/interpretations of the original songs. You may use it for private study, scholarship, research or language learning purposes only