» »

/0-9/311-tabs-28.html

»

311, You Wouldn Believe Bass tabs (ver.1)

Artists:  A B C D E F G H I J K L M N O P Q R S T U V W X Y Z # 

You Wouldn Believe Bass tabs (ver.1)

311 Tabs
 Rating:
4/5 (4 votes)
You Wouldn	 Believe lessons Tabs too difficult? Try these video lessons and learn fast
                im not 100% accurate but im pretty sure this is it

verse/chorus:
G--------------------------------/-------------------------------
D--------------------------03-03-/--------------------------03-03
A--------------------------------/-------------------------------
E--------------------------------/-------------------------------
B-3-333-1-1-11-1--3-33-1-1-------/-3333-3-1-11-1--3-333-1-1------

verse (when S.A. raps)
G------------------------------------
D------------------------------------
A------------------------------------
E-0-0-0-0--2-2-2-3-3-3--5-5-7-7-8-8--
B------------------------------------

bass solo (which is actually the guitar part before the chorus)
G-------2-4-5-4-2-4-2~-2-0~---------2-4-5-4-2-4-2--777-777-
D-0-4-5-----------------------0-4-5------------------------
A----------------------------------------------------------
E----------------------------------------------------------
B----------------------------------------------------------

ending:
G---------------------
D-3-3-03-03-----------
A---------------------
E------------0--------
B---------------5//1--
            
Submit corrections

comments powered by Disqus
↑ Back to top | 311 Bass for You Wouldn Believe. Lyrics for acoustic guitar and electric guitar. Tablatures and chords are parodies/interpretations of the original songs. You may use it for private study, scholarship, research or language learning purposes only