» »

/0-9/311-tabs-28.html

»

You Get Worked Tabs (ver.2)

Artists:  A B C D E F G H I J K L M N O P Q R S T U V W X Y Z # 

You Get Worked Tabs (ver.2)

311
Rating:
0/5 (0 votes)

Hard to play? Try these video lessons and learn fast.
                Intro
-----------------------------------------------
-----------------------------------------------
----2-0-2--2-0-2-0-2--------------------------- Play 3 times
-----------------------------------------------
-----------------------------------------------
-----------------------------------------------

-----------------------------------------------
-----------------------------------------------
----2-0-2--2-0---------------------------------
---------------2-1-----------------------------  Play 4th time
-----------------------------------------------
-----------------------------------------------
Main Riff
-----------------------------------------------
-----------------------------------------------
-----------------------------------------------
----------------------------------------------- Play 3 times
-----------------------------------------------
----5-3-5--5-3-5-3-5---------------------------

-----------------------------------------------
-----------------------------------------------
-----------------------------------------------
----------------------------------------------- on the 4th time play this
-----------------------------------------------
----5-3-5--5-3-0-0-0-0-------------------------

Rap
-----------------------------------------------
-----------------------------------------------
-----E CHORD OVER AND OVER---------------------
-----------------------------------------------
-----------------------------------------------
-----------------------------------------------

-----------------------------------------------
-----------------------------------------------
-----------------------------------------------
-----------------------------------------------
-----------------------------------------------
----------MAIN RIFF----------------------------

CHORUS
------------------------------------------7--------
-----------------------10-9-------------7---7------
-------9--------------------9-----------------7----
-----9---9--------------------9--------------------
---7-------7---------------------------------------
---------------------------------------------------


THE REST OF THE SONG WILL COME SOON
            
Hard to play? Try these video lessons and learn fast. | Correct




comments powered by Disqus
↑ Back to top | Tablatures and chords are parodies/interpretations of the original songs. You may use it for private study, scholarship, research or language learning purposes only