» »

/0-9/311-tabs-28.html

»

Whiskey And Wine Tabs (ver.2)

Artists:  A B C D E F G H I J K L M N O P Q R S T U V W X Y Z # 

Whiskey And Wine Tabs (ver.2)

311
Rating:
0/5 (0 votes)

Hard to play? Try these video lessons and learn fast.
                Some of the minor arpeggiated stuff I may have missed, but this is pretty much the full
song. What I have here is accurate.

Chord intro/verse:
e)--5----5-5--5-5--5-5--5-x-x--2--2-2--2--2-2--2--2-3-4--4-4--4--4-4--4-4-)
B)--5----5-5--5-5--5-5--5-x-x--3--3-3--3--3-3--3--3-4-5--5-5--5--5-5--5-5-)
G)--6----6-6--6-6--6-6--6-x-x--4--4-4--4--4-4--4--4-5-6--6-6--6--6-6--6-6-)
D)--7----7-7--7-7--7-7--7-x-x--4--4-4--4--4-4--4--4-5-6--6-6--6--6-6--6-6-)
A)-(5)--------------------------------------------------------------------)
E)-(5)--------------------------------------------------------------------)

e)-2--2-2--2--2-2--2--2-2---12--------------------------------------------)
B)-3--3-3--3--3-3--3--3-3---14--------------------------------------------)
G)-4--4-4--4--4-4--4--4-4---14---------REPEAT-----------------------------)
D)-4--4-4--4--4-4--4--4-4---14----(Skip last chord)-----------------------)
A)-------------------------(12)-------------------------------------------)
E)-------------------------(12)-------------------------------------------)


Melodic line: 
e)------------------------------------------------------------------------)
B)------------------------------------------------------------------------)
G)-------6--9--6/7-6-----6--------6-----------6--9--6/9-6---6-------------)
D)--7--9--------------9-----7--9----7---7--9--------------9---7--7-7-7-7--)
A)------------------------------------------------------------------------)
E)------------------------------------------------------------------------)

e)------------------------------------------------------------------------)
B)----------------------------------------7---7---------------------------)
G)-------6--9--6/7-6----6--------6--9---9----9---9---6-6-7-6---6----------)
D)--7--9-------------9-----7--9------------------------------9----7-------)
A)------------------------------------------------------------------------)
E)------------------------------------------------------------------------)


>For the chorus, you may have to reconfigure the chord order, but it's hardly
noticable anyway. I think the closest thing to the chorus/background during
the melodic line is this:

e)--5---5-5--5--5-5--5--5---2---2-2--2--2-2--2--2-------------------------)
B)--5---5-5--5--5-5--5--5---3---3-3--3--3-3--3--3-------------------------)
G)--6---6-6--6--6-6--6--6---4---4-4--4--4-4--4--4---REPEAT----------------)
D)--7---7-7--7--7-7--5--5---4---4-4--4--4-4--4--4-------------------------)
A)-(5)--------------------------------------------------------------------)
E)-(5)--------------------------------------------------------------------)

Hey, my tab is better than that other guy's! 
            
Hard to play? Try these video lessons and learn fast. | Correct




comments powered by Disqus
↑ Back to top | Tablatures and chords are parodies/interpretations of the original songs. You may use it for private study, scholarship, research or language learning purposes only