» »

/0-9/311-tabs-28.html

»

311, What Was I Thinking Bass tabs (ver.2)

Artists:  A B C D E F G H I J K L M N O P Q R S T U V W X Y Z # 

What Was I Thinking Bass tabs (ver.2)

311 Tabs
 Rating:
4/5 (4 votes)
What Was I Thinking lessons Tabs too difficult? Try these video lessons and learn fast
                "(2)
this is quite easy...

intro:
G-----------------------7-9----------------------
D---------------------x--------------------------
A-----------------x-x----------------------------
E-0-0-x-0-x-0-0-x--------------------------------

verse:
G-----------------------------------------------
D-----------------------------------------------
A-----------------------------------------------
E-1-x-1-x-x-1-x-1-x-x-1-x-x-1-x-----------------

chorus:
G--------------------------------------------------
D--------------------------------------------------
A--------------------------------------------------
E-2-x-2-2-x-2---2-x-2-2-x-2---2-x-2-2-x-2----------

bridge:
G----------0-2-------------------/------------------------------------
D--------------------------------/----------------------------5-7-----
A---2-0-2----------2-0-2---2-2-0-/---2-2-0----2-0-2----2-0-2----------
E-0-------------0--------0-------/-0--------0--------0-------------0*-

thats it...just repeatr that stuff a couple of times...the lenght of the song is 2:38


Lyrics:

the word, that i heard, was so absurd
i cant beleive it slipped from my lips
oh....
the tongue form which it was sung
was so dumb, i wish i could pull it from my skull
oh....

what the f*** was i thinking, unh
what the f*** was i thinking, unh
what the f*** was i thinking, unh
what the f*** was i thinking, unh
what the f*** was i thinking, unh
what the f*** was i thinking, unh
what the f*** was i thinking, unh
what the f*** was i thinking, unh

the word, that i heard, was so absurd
i cant beleive it slipped from my lips
oh....
the tongue form which it was sung
was so dumb, i wish i could pull it from my skull
oh....

what the f*** was i thinking, unh
what the f*** was i thinking, unh
what the f*** was i thinking, unh
what the f*** was i thinking, unh
what the f*** was i thinking, unh
what the f*** was i thinking, unh
what the f*** was i thinking, unh
what the f*** was i thinking, unh
"            
Submit corrections

comments powered by Disqus
↑ Back to top | 311 Bass for What Was I Thinking. Lyrics for acoustic guitar and electric guitar. Tablatures and chords are parodies/interpretations of the original songs. You may use it for private study, scholarship, research or language learning purposes only