» »

/0-9/311-tabs-28.html

»

311, What Was I Thinking Bass tabs (ver.1)

Artists:  A B C D E F G H I J K L M N O P Q R S T U V W X Y Z # 

What Was I Thinking Bass tabs (ver.1)

311 Tabs
 Rating:
4/5 (4 votes)
What Was I Thinking lessons Tabs too difficult? Try these video lessons and learn fast
1
                "(1)
'What Was I Thinking' -- Bass Tab
Performed by 311
Music by:  N. Hexum 
Lyrics by:  N. Hexum
(c) 1997 Allegiance Music/Hydroponic Music BMI
---------------


Verse A:

1:-----------------------
2:-----------------------
3:---------------0h5-5-7-
4:-0-0-0-0-0-0-0---------

-- or --

    S S S S S S S S   P P                                                
G:---------------------------
D:---------------------------
A:----------------0h5-x-7p5--
E:--0-0-x-0-x-0-0------------
                      ^possibly 7

-- or --

1:------------------------X(7)--p5--h7--
2:------------------------x-x---x----x--
3:------------------0h5---x---x-x----x--
4:--0-0-0-0-0-0-0-----------------------

All small x's are hit with whole thump with right hand

Half of you may think its not right, but it is. You just have to know how
to mute with the left hand while slapping. Its a little advanced in
slap...

-- or --
                                                                   P-H
G:----------------------------------------------------------------------
D:-----------------------------------------------------------------0--2-
A:----------------------------------------------------------------------
E:-0--(0)--0--(0)---(0)--0--(0)--(0)---0--(0)--0--(0)-(0)-(0)-(0)-------
   T   *   T   *     *   T   *    *    T   *   T   *   *    *   *
   
* = Left-hand slap


Verse B:

1:-----------------
2:-----------------
3:-----------------
4:-1-0-0-1-0-0-0-0-


Chorus:

1:-------------
2:-(4-4-4-4-4)-
3:-(4-4-4-4-4)-
4:--2-2-2-2-2--

* Second time through, play as power chords, Listen *


Bridge:

1:----------------------------------
2:----------------------------------
3:----------5h7---------5h7---------
4:-0h7--5h7-----0h7-5h7-----0h7-7p5-

1:------------------------------------
2:------------------------------------
3:------------------5h7---------5h7---
4:-0h7-7p5--0h7-5h7-----0h7-5h7-----0-


Song Structure:
Verse A (x12)
Verse B (x4)
Verse A (x4)
Verse B (x4)
Verse A (x4)
Chorus (x8)
Bridge (x2)
Verse B (x4)
Verse A (x4)
Verse B (x4)
Verse A (x4)
Chorus (x8)
Bridge (x2)


== Last Updated:  December 2, 1997 ==
"            
Submit corrections

comments powered by Disqus
↑ Back to top | 311 Bass for What Was I Thinking. Lyrics for acoustic guitar and electric guitar. 1 Tablatures and chords are parodies/interpretations of the original songs. You may use it for private study, scholarship, research or language learning purposes only