» »

/0-9/311-tabs-28.html

»

311, Wake Your Mind Up Bass tabs (ver.2)

Artists:  A B C D E F G H I J K L M N O P Q R S T U V W X Y Z # 

Wake Your Mind Up Bass tabs (ver.2)

311 Tabs
 Rating:
4/5 (4 votes)
Wake Your Mind Up  lessons Tabs too difficult? Try these video lessons and learn fast
                (2)
Riff 1:
G:---------
D:---------
A:---------
E:---4-----
B:-2---2-2-

Riff 2:
G:------------------------------------------
D:------------------------------------------
A:------------------------------------------
E:--------4--4--5-7-7-7-7--5--5-5--5--5-5-5-
B:-2-2-2------------------------------------

Riff 3:
   s  s p s p s p s       s  s p s p s p s p s s s
G:-------------------------------------------------
D:------x---x---4--------------x---x---x---x-------
A:----------------2h3p2p0-2--2---2---0---0---0-3-2-
E:-2--2---2---2------------------------------------
B:-------------------------------------------------

Riff 4:
   s  s p s p s p s       s s s s   s s   s
G:--------------------------------------------
D:------x---x---4-------------------------0h2-
A:----------------2h3p2p0-2-0-2-3p2-2-0h2-----
E:-2--2---2---2-------------------------------
B:--------------------------------------------

Riff 5:
G:------------------
D:--------------0h2-
A:-0-2--3-2-0h2-----
E:------------------
B:------------------

Riff 6:
G:----------------------4-4-4-
D:---------------2-2-2--2-2-2-
A:--------2-2-2--2-2-2--2-2-2-
E:-0-0-0--0-0-0--0-0-0--0-0-0-
B:----------------------------

Solo:
G:--------------------------------------------------
D:-2--2-2-2-------------------2--2-2-2--------------
A:----------3-2--2-2-------------------3-2-2--------
E:--------------------3-2-0-------------------3-3-2-
B:--------------------------------------------------
            
Submit corrections

comments powered by Disqus
↑ Back to top | 311 Bass for Wake Your Mind Up. Lyrics for acoustic guitar and electric guitar. Tablatures and chords are parodies/interpretations of the original songs. You may use it for private study, scholarship, research or language learning purposes only