» »

/0-9/311-tabs-28.html

»

Wake Your Mind Up Bass tabs (ver.1)

Artists:  A B C D E F G H I J K L M N O P Q R S T U V W X Y Z # 

Wake Your Mind Up Bass tabs (ver.1)

311
Rating:
0/5 (0 votes)

Hard to play? Try these video lessons and learn fast.
                (1)
This song is awesome, the breakdown part kicks so much ass.  If you have any questions

Intro
G--------------------------------------
D--------------------------------------
A--4---4-4--4---4-4--4---4-4--4---4-4--
E----5--------5--------5--------5------

Verse
G-------------------------------
D-------------------------------
A--4-4-444----------------------
E----------4-4-7777-5-55-5-55-5-

Chorus
    s s p s s s s s   s   s  s s p s s                                                 
G------------------------------------
D------4------------------------x----
A--------------0-4p0-4p0-2--0-0---4-2
E--2-2---2-5-2-----------------------


2nd chorus
    s s p p s s s s   s   s s s ss s s   s p  
G---------------------------------------------
D------4-x--------------------------------0h2-
A--------------0-4p0-4p0-2-3-2-x3-2-0h2-0-----
E--2-2-----4-5--------------------------------


dont stop what you got
    s s ss s s   s p    s s ss s s   s p
G-----------------------------------------------------------------------
D-----------------0h2-----------------0h2-------------------------------
A--0-2-x3-2-0h2-0------0-2-x3-2-0h2-0-----------------------------------
E-----------------------------------------0-0-0---0-0-0---0-0-0---0-0-0-


Breakdown part

G------------------------------------------------
D--1\2-1-2-1---------------1\2-1-2-1-------------
A------------3-2---------------------3-2-2-3-2---
E----------------3-3-3-2-0---------------------3-


And that's it!!  Enjoy, great song by 311!!!!
            
Hard to play? Try these video lessons and learn fast. | Correct




comments powered by Disqus
↑ Back to top | Tablatures and chords are parodies/interpretations of the original songs. You may use it for private study, scholarship, research or language learning purposes only