» »

/0-9/311-tabs-28.html

»

311, Tune In Tabs (ver.2)

Artists:  A B C D E F G H I J K L M N O P Q R S T U V W X Y Z # 

Tune In Tabs (ver.2)

311 Tabs
Rating:
0/5 (0 votes)
Tune In lessons Tabs too difficult? Try these video lessons and learn fast
                'Tune In'
Performed by 311
Music by:  C. Sexton
Lyrics by:  D. Martinez
(c) 1997 Hydroponic Music BMI
---------------

** This song in Drop-D Tuning **

Riff 1 (w/Distortion):
   N.C.
1:------------------------------------------------
2:------------------------------------------------
3:------------------------------------------------
4:------------------------------------------------
5:-3-3-3-5-----------------3-3-3-5----------------
6:----------0-2-3-3-3-2-0-----------2-3-5-5-5-3-2-

   N.C.                               (A)
1:-----------------------------------------------------
2:-----------------------------------------------------
3:----------------------------------------2------2-----
4:--------------------------------------2---2------2---
5:-3-3-3-5-----------------3-3-3-5----4-------4------4-
6:----------0-2-3-3-3-2-0------------------------------

Chorus Riff (w/Distortion):

   N.C.
1:-----------------------------------------------------------
2:-----------------------------------------------------------
3:-----------------------------------------------------------
4:-----------------------------------------------------------
5:-------3-2-2-2------3-2-2-2--------3--2--2--2------3-2-2-2-
6:-5-5-5----------5-5----------5-5-5-------------5-5---------

   N.C.
1:--------------------------------------------------------
2:--------------------------------------------------------
3:--------------------------------------------------------
4:--------------------------------------------------------
5:-------5-3-3-3------5-3-3-3--------5-3-3-3------2-3-1---
6:-3-3-3----------3-3----------3-3-3----------3-5-------5-

Riff 2 (w/Distortion):
   N.C.
1:-------------------------------
2:-------------------------------
3:-------------------------------
4:-------------4-4-4//6----------
5:-5-4-5-2-1-2-------------------
6:-----------------------2--2--2-

Riff 3 (w/Distortion):
   N.C.
1:------------------------------------------------------------
2:------------------------------------------------------------
3:------------------------------------------------------------
4:-------------5-4-5------------------------------------------
5:-5-4-5-2-1-2-------2-1-2-5-4-2-0--------4---------3-6---5-8-
6:----------------------------------5-5-5---6-6-6-6-----8-----


Lyrics/Song Structure:
---> Play Riff 1 (x2) over:
   You're a power spot rotating, Ever-changing
   Transmitting like a radio wave, Frequently feeling
   What's goin' on, Times are weird, all this static
   Things erratic, Seems like we lost the magic
   See how clear is inner quality, A yin and yang type of thang
   Sacred geometry, Ascending mad, Energy craze bad
   You're something NASA ***in' wish they had
---> Play Chorus Riff (x2) over:
   Tune in, for those who are wantin'
   Vision - feel it from within, Sing along
   Tune in, for those who are wantin'
   Vision - feel it from within (You know)
---> Play Riff 2 (x4)
---> Play Riff 1 (x2) over:
   You're a star creator, Soul craft generator
   Movin' through time and space, Son, you're a liberator
   But your memory had been erased, the things you knew misplaced
   Check it out, Babylon life style we scorn
   Now we live again in LA, Tokyo, and New York
   Come on pay a fee, smoke your booty weed
   Put gas in your tank, keep your city bumpin'
---> Play Chorus Riff (x2) over:
   Tune in, for those who are wantin'
   Vision - feel it from within, Sing along
   Tune in, for those who are wantin'
   Vision - feel it from within 
---> Play Riff 3 (x2)
---> Play Riff 3 (x8) over:
   Tune in, for those who are wantin'
   Vision - feel it from within, Sing along
   Tune in, for those who are wantin'
   Vision - feel it from within
            
Submit corrections

comments powered by Disqus
↑ Back to top | 311 Tabs for Tune In. Lyrics for acoustic guitar and electric guitar. Tablatures and chords are parodies/interpretations of the original songs. You may use it for private study, scholarship, research or language learning purposes only