» »

/0-9/311-tabs-28.html

»

Transistor Remix Bass tabs (ver.1)

Artists:  A B C D E F G H I J K L M N O P Q R S T U V W X Y Z # 

Transistor Remix Bass tabs (ver.1)

311
Rating:
0/5 (0 votes)

Hard to play? Try these video lessons and learn fast.
                Riff 1:
g:-------------------------|
d:---7------3------7--4-3--|
a:-----7--4---------------4|
e:5------------5-----------|
b:-------------------------|

Riff 2:
g:-----------------|
d:-----------------|
a:----6-----------6|
e:4-------6---4----|
b:-----------------|

Riff 3:
g:----------------------------------------------------|
d:----------------------------------------------------|
a:----------------------------------------------------|
e:3-3-3-3-3-3----------------3-3-3-3-3--3--5-5-5h7-7-7|
b:--------------3-3-3-3-3-3---------------------------|

Riff 4:
g:----------------------|
d:----------------------|
a:----------------------|
e:0-2-3-5-2-2--2-5-2-0-5|
b:----------------------|

Riff 5:
g:-------------------|
d:-------------------|
a:-------------------|
e:3-------1-1-1-0-1-0|
b:----1--------------|
            
Hard to play? Try these video lessons and learn fast. | Correct




comments powered by Disqus
↑ Back to top | Tablatures and chords are parodies/interpretations of the original songs. You may use it for private study, scholarship, research or language learning purposes only