» »

/0-9/311-tabs-28.html

»

Too Much Too Fast Bass tabs (ver.1)

Artists:  A B C D E F G H I J K L M N O P Q R S T U V W X Y Z # 

Too Much Too Fast Bass tabs (ver.1)

311
Rating:
0/5 (0 votes)

Tabs too difficult? Try these video lessons and learn fast.
                311 - Too Much Too Fast
5 String Bass - BEADG tuning


Intro - after 2 bars of Guitar
G|-----------------|-----------------|-----------------|--------------|
D|-7-7-7-7-----7-7-|-9-9-7-7-5-5-7-7-|-7-7-7-7-----7-7-|-9------------|
A|---------9-9-----|-----------------|---------9-9-----|--------------|
E|-----------------|-----------------|-----------------|--------------|
B|-----------------|-----------------|-----------------|--------------|




Verse - 
   part 1 - play 2x
G|----------------|-----------------|------------------|----------------|
D|----------------|-----------------|------------------|----------------|
A|----------------|-----------------|--------------7---|-7--------------|
E|--------5-------|-------------5---|----------7-----7-|---7-5-------5--|
B|-3----3-------3-|-3----3-3------3-|-5----8-----------|---------8------|

1. "Rifling through the pictures of you, I can finally tell they developed well"

2. "The tale I see, it tells my favorite story       of friction and glory"



   part 2
G|-------------------|------------------|-----------------|-----------------|
D|-------------------|----------2-------|-----------------|-----------------|
A|-----------4-------|--------------4---|-2-------0-------|-2-------0-------|
E|-2--2----2---2---2-|-2-2----2---------|-----3-------2---|-----3-------2---|
B|-------------------|------------------|-----------------|-----------------|
"Breaking the cast of repeating the past Its not written,    that's all just fiction"

G|----------------|-----------------|------------|-------------------|
D|--------------5-|--------5--7--5--|------------|-------------------|
A|-4----------4---|-4---------------|-9----------|-9-----13----------|
E|----------------|-----------------|------------|----12-----12___\--|hold
B|----------------|-----------------|------------|-------------------|then slide
  "Oh,  Who says it's written in stone?"





Play Verse Part 1 and 2 again

Lyrics:
"It's been a long time,   Oh such a long time
Finding my way all back out,   whoa 
Somehow you stood by  beyond when you should die 
I'm amazed at how things have turned out"

"What is revealed? What is concealed? 
It makes all the difference Say what you will 
We unreeled that human web Just to see how it feels?"



Prechorus Part
G|-----------------|-----------------|
D|-----------------|-----------------|
A|-5---5-----------|-5---5-----------|
E|---5---8-7---7-5-|---5---8-7---7-5-|
B|-----------5-----|-----------5-----|





First Chorus - 

Part  1, play 2x
G|-----------------|-----------------|-----------------|-----------------|
D|-----------------|-----------------|-----4------4----|-----4------4----|
A|-----0-----0-----|-----0-----0-----|-2-5----5------5-|-2-5----5------5-|
E|---2-----------2-|---2-----------2-|-----------------|-----------------|
B|-3-----3---------|-3-----3---------|-----------------|-----------------|

1 "Too much too fast for the moment to last, I tumbled to you while stumbling through

2 "How do I get my   head up off of the tracks? Listening for a train, ah"


Part 2 - 
G|-----4---7---4---|-----4---7---4---|-----3---5---3---|----------------------|
D|-5---------------|-5---------------|-4---------------|----------------------|
A|-----------------|-----------------|-----------------|-4h5p4-2h4p2-1h2p1----|
E|-----------------|-----------------|-----------------|-------------------3--|
B|-----------------|-----------------|-----------------|----------------------|

G|-----4---7---4---|-----4---7---4---|-----6---9---6---|---------------|-------|
D|-5---------------|-5---------------|-7---------------|-7-------------|-------|
A|-----------------|-----------------|-----------------|----7-----0----|-------|
E|-----------------|-----------------|-----------------|-------9-------|-------|
B|-----------------|-----------------|-----------------|---------------|---3---|



Run through Verse Part 1 Again, with Lyrics:

"Out of the blue It all comes in view 
You never win If you don't go all in 
The perfect hand can go just as you planned 
I don't understand" 

Play Verse Part 2 Again, with:

"Began right on track, slipped through the cracks 
We were two of a kind Who seemed destined to find 
We unreeled that human web Just to see how it feels"



Play Prechorus bars, then repeat Chorus.

Only change is that the guitar/bass solo (bar 4) in part 2 changes to:


G|-----------------7/9~~~----|
D|-------------7-9-----------|
A|-------5-7-9---------------|
E|---5-7---------------------|
B|-7-------------------------|



Finish chorus riff, then repeat Verse Riff 1 (4x) for Outro

End on D
G|---------------------|
D|---------------------|
A|---------------------|
E|---------------------|
B|----3----------------|

Key
| /  slide up
| \  slide down
| h  hammer-on
| p  pull-off
| ~  vibrato
| x  Mute note
| __ hold out note longer
            
Tabs too difficult? Try these video lessons and learn fast.




comments powered by Disqus
↑ Back to top | Tablatures and chords are parodies/interpretations of the original songs. You may use it for private study, scholarship, research or language learning purposes only